PrimaNota.ru - самый крупный в мире бесплатный архив песенных текстов, аккордов, табулатур и нот


Misc Unsigned Bands - Susu Murni Nasional - таба

Регистрация Запомнить меня
Войти через:  Facebook Google Twitter Vk Yandex Mail.ru

Misc Unsigned Bands - Susu Murni Nasional - таба

Печатать
Просмотров: 53
-------------------------------------------------------------------------------
                             Susu Murni Nasional guitar versi galau
-------------------------------------------------------------------------------
https://soundcloud.com/xaviersakti/susu-murni-nasional-guitar-galau-ver
Tabbed by:Xaviersakti Adrimartja
E-mail:adrimartja@gmail.com

Tuning:
Intro
e|--4-4-5--7-4---------------------------------------------------------------|
B|--------------5---5/7---------5--------------------------------------------|
G|----------------6---------4h6---6-4-2-1--2-4-4-----------------------------|
D|---------------------------------------------------------------------------|
A|---------------------------------------------------------------------------|
E|---------------------------------------------------------------------------|
verse
e|---------------------------------------------------------------------------|
B|-5-------------------------7-----------------------------------------------|
G|---6-------------------------7---------------------------------9-9-9-------|
D|-----7-7-7------7-7-6-7-7/9------9-9-9------9-9-7-9-9/11-----11------------|
A|-----------------------------------------------------------12--------------|
E|---------------------------------------------------------------------------|

e|---------------------------------------------------------------------------|
B|----------9-9h10-----------------------------------------------------------|
G|-11-10-11------------------------------------------------------------------|
D|---------------------------------------------------------------------------|
A|---------------------------------------------------------------------------|
E|---------------------------------------------------------------------------|

e|---------------------------------------------------------------------------|
B|-5-------------------------7-----------------------------------------------|
G|---6-------------------------7---------------------------------9-9-9-------|
D|-----7-7-7------7-7-6-7-7/9------9-9-9------9-9-7-9-9/11-----11------------|
A|-----------------------------------------------------------12--------------|
E|---------------------------------------------------------------------------|

e|----------------------------12/14-12-10-9----------------------------------|
B|----------9-12-10-10---9-10---------------12-10----------------------------|
G|-11-10-11------------------------------------------------------------------|
D|---------------------------------------------------------------------------|
A|---------------------------------------------------------------------------|
E|---------------------------------------------------------------------------|
interlude
e|---------------------------------------------------------------------------|
B|---9h10-9------------------------------------------------------------------|
G|----------9--------------------9-------------------------------------------|
D|------------11-9-9h11-----9h11---11-9-9h11-7---6/7-6-4---------------------|
A|---------------------------------------------------------------------------|
E|---------------------------------------------------------------------------|



************************************

| /   slide up
| \   slide down
| h   hammer-on
| p   pull-off
| ~   vibrato
| +   harmonic
| x   Mute note
| b   Bend
| pb  Pre-bend
| br  Bend release
| pbr Pre-bend release
| brb Bend release bend

************************************
Добавлено: 26.04.2016
Другие материалы по этой песне:
  • Аккорды и текст

Страница создана 26.04.2016
http://primanota.ru/misc-unsigned-bands/susu-murni-nasional-chords.htm
Привет, Гость.
Предлагаем пройти революционный курс по гитаре.
Подарок от PrimaNota.Ru, забирай!