PrimaNota.ru - самый крупный в мире бесплатный архив песенных текстов, аккордов, табулатур и нот


Misc Unsigned Bands - The Cautious - Mind Race - таба, видео

Регистрация Запомнить меня
Войти через:  Facebook Google Twitter Vk Yandex Mail.ru

Misc Unsigned Bands - The Cautious - Mind Race - таба, видео

Печатать
Просмотров: 72
-------------------------------------------------------------------------------
                         MIND RACE - The Cautious
-------------------------------------------------------------------------------
Tabbed by: Ritwik Krishnan

Intro:
 Form (4 bars guitar)

Guitar 1:

e|-----------------------------------------------------|
B|-----------------------------------------------------|
G|-----7-----6------11------------11-----7-----4-------|
D|---0-----0------0-------------0------0-----0---------|
A|-----------------------------------------------------|
E|-7-----5-----10------------10------7-----3-----------|

Verse 1:
 Form (8 bars guitar/bass/drums/vocals)

Guitar 1:

e|-----------------------------------------------------|
B|-----------------------------------------------------|
G|-----7-----6------11------------11-----7-----4-------|
D|---0-----0------0-------------0------0-----0---------|
A|-----------------------------------------------------|
E|-7-----5-----10------------10------7-----3-----------|

Bass:

G|---------------------------------------------------|
D|---------------------------------------------------|
A|---------------------------------------------------|
E|-7-----5-----10-----------10-----7-----3-----------|

Chorus:
 Form (8 bars guitar/bass/drums/vocals)

Guitar 1:

e|---------------------------------------------------|
B|---------------------------------------------------|
G|-----4-----4-----6-----6-----7------11-----4-----4-|
D|---0-----0-----0-----0-----0------0------0-----0---|
A|---------------------------------------------------|
E|-3-----3-----5-----5-----7-----10------3-----3-----|

e|-------------------------------------------------------|
B|-------------------------------------------------------|
G|-----4-----4-----6-----6-----7------11------14------14-|
D|---0-----0-----0-----0-----0------0-------0-------0----|
A|-------------------------------------------------------|
E|-3-----3-----5-----5-----7-----10------14------14------|

e|---------------------------------------------------|
B|---------------------------------------------------|
G|-----4-----4-----6-----6-----7------11-----4-----4-|
D|---0-----0-----0-----0-----0------0------0-----0---|
A|---------------------------------------------------|
E|-3-----3-----5-----5-----7-----10------3-----3-----|

e|-------------------------------------------------|
B|-------------------------------------------------|
G|-----4-----4-----6-----6-----7-----6-----4-----4-|
D|---0-----0-----0-----0-----0-----0-----0-----0---|
A|-------------------------------------------------|
E|-3-----3-----5-----5-----7-----5-----3-----3-----|

Bass:

G|--------------------------------------------------|
D|--------------------------------------------------|
A|--------------------------------------------------|
E|-3-----3-----5-----5-----7-----10-----3-----3-----|

G|--------------------------------------------------|
D|--------------------------------------------------|
A|--------------------------------------------------|
E|-3-----3-----5-----5-----7-----10-----2-----2-----|

G|--------------------------------------------------|
D|--------------------------------------------------|
A|--------------------------------------------------|
E|-3-----3-----5-----5-----7-----10-----3-----3-----|

G|-------------------------------------------------|
D|-------------------------------------------------|
A|-------------------------------------------------|
E|-3-----3-----5-----5-----7-----5-----3-----3-----|

Post Chorus:
 Form (4 bars guitar/bass/drums)

Guitar 1:

e|-------------------------------------------------|
B|-------------------------------------------------|
G|-----4-----4-----3-----3-----2-----2-----2-----2-|
D|---0-----0-----0-----0-----0-----0-----0-----0---|
A|-------------------------------------------------|
E|-3-----3-----3-----3-----2-----2-----2-----2-----|

Bass:

G|-----------------------------------------------------|
D|-----------------------------------------------------|
A|-----------------------------------------------------|
E|-3-----3-----3-----3-----10-----10-----10-----10-----|

Verse 2 (TABS SAME AS VERSE 1):
 Form (8 bars guitar/bass/drums/vocals)

Chorus (TABS SAME AS FIRST CHORUS):
 Form (8 bars guitar/bass/drums/vocals)

Post Chorus:
 Form (4 bars guitar/bass/drums)

Bridge [switches to 18/8]:
 Form (2 bars guitar/bass/drums/vocals)

Guitar 1:

e|-------------------------------------|
B|-------------------------------------|
G|-----4-----4-----6-----6-----6-----6-|
D|---0-----0-----0-----0-----0-----0---|
A|-------------------------------------|
E|-3-----3-----5-----5-----5-----5-----|

Bass:

G|-------------------------------------|
D|-------------------------------------|
A|-------------------------------------|
E|-3-----3-----5-----5-----5-----5-----|

Break:
 Form (2 bars guitar/bass/drums)

Guitar 1:

e|-----------------------------------------------------|
B|-----------------------------------------------------|
G|-----7-----6------11------------11-----7-----4-------|
D|---0-----0------0-------------0------0-----0---------|
A|-----------------------------------------------------|
E|-7-----5-----10------------10------7-----3-----------|

Bass:

G|---------------------------------------------------|
D|---------------------------------------------------|
A|---------------------------------------------------|
E|-7-----5-----10-----------10-----7-----3-----------|

Chorus [BIG VERSION]:
 Form (16 bars guitar/bass/drums/vocals)

Guitar 1:

e|---------------------------------------------------|
B|---------------------------------------------------|
G|-----4-----4-----6-----6-----7------11-----4-----4-|
D|---0-----0-----0-----0-----0------0------0-----0---|
A|---------------------------------------------------|
E|-3-----3-----5-----5-----7-----10------3-----3-----|

e|-------------------------------------------------------|
B|-------------------------------------------------------|
G|-----4-----4-----6-----6-----7------11------14------14-|
D|---0-----0-----0-----0-----0------0-------0-------0----|
A|-------------------------------------------------------|
E|-3-----3-----5-----5-----7-----10------14------14------|

e|---------------------------------------------------|
B|---------------------------------------------------|
G|-----4-----4-----6-----6-----7------11-----4-----4-|
D|---0-----0-----0-----0-----0------0------0-----0---|
A|---------------------------------------------------|
E|-3-----3-----5-----5-----7-----10------3-----3-----|

e|-------------------------------------------------|
B|-------------------------------------------------|
G|-----4-----4-----6-----6-----7-----6-----4-----4-|
D|---0-----0-----0-----0-----0-----0-----0-----0---|
A|-------------------------------------------------|
E|-3-----3-----5-----5-----7-----5-----3-----3-----|

Guitar 2:

e|----------------------------------------------------|
B|----------------------------------------------------|
G|-4-4-4-4-4-4-6-6-6-6-6-6-7-7-7-11-11-11-4-4-4-4-4-4-|
D|-0-0-0-0-0-0-0-0-0-0-0-0-0-0-0-0--0--0--0-0-0-0-0-0-|
A|----------------------------------------------------|
E|-3-3-3-3-3-3-5-5-5-5-5-5-7-7-7-10-10-10-3-3-3-3-3-3-|

e|----------------------------------------------------------|
B|----------------------------------------------------------|
G|-4-4-4-4-4-4-6-6-6-6-6-6-7-7-7-11-11-11-14-14-14-14-14-14-|
D|-0-0-0-0-0-0-0-0-0-0-0-0-0-0-0-0--0--0--0--0--0--0--0--0--|
A|----------------------------------------------------------|
E|-3-3-3-3-3-3-5-5-5-5-5-5-7-7-7-10-10-10-14-14-14-14-14-14-|

e|----------------------------------------------------|
B|----------------------------------------------------|
G|-4-4-4-4-4-4-6-6-6-6-6-6-7-7-7-11-11-11-4-4-4-4-4-4-|
D|-0-0-0-0-0-0-0-0-0-0-0-0-0-0-0-0--0--0--0-0-0-0-0-0-|
A|----------------------------------------------------|
E|-3-3-3-3-3-3-5-5-5-5-5-5-7-7-7-10-10-10-3-3-3-3-3-3-|

e|-------------------------------------------------|
B|-------------------------------------------------|
G|-4-4-4-4-4-4-6-6-6-6-6-6-7-7-7-6-6-6-4-4-4-4-4-4-|
D|-0-0-0-0-0-0-0-0-0-0-0-0-0-0-0-0-0-0-0-0-0-0-0-0-|
A|-------------------------------------------------|
E|-3-3-3-3-3-3-5-5-5-5-5-5-7-7-7-5-5-5-3-3-3-3-3-3-|

Bass:

G|--------------------------------------------------|
D|--------------------------------------------------|
A|--------------------------------------------------|
E|-3-----3-----5-----5-----7-----10-----3-----3-----|

G|--------------------------------------------------|
D|--------------------------------------------------|
A|--------------------------------------------------|
E|-3-----3-----5-----5-----7-----10-----2-----2-----|

G|--------------------------------------------------|
D|--------------------------------------------------|
A|--------------------------------------------------|
E|-3-----3-----5-----5-----7-----10-----3-----3-----|

G|-------------------------------------------------|
D|-------------------------------------------------|
A|-------------------------------------------------|
E|-3-----3-----5-----5-----7-----5-----3-----3-----|

Outro:
 Form (4 bars guitar/bass/drums)

Guitar 1:

e|-3-----3-----2-----------|
B|-3-----3-----3-----------|
G|-4-----3-----2-----------|
D|-5-----5-----0-----------|
A|-5-----5-----x-----------|
E|-3-----3-----x-----------|

(Gmaj, Gmin, D)

Bass:

G|-----------------------------------------------------|
D|-----------------------------------------------------|
A|-----------------------------------------------------|
E|-3-----3-----3-----3-----10-----10-----10-----10-----|


************************************

| /   slide up
| \   slide down
| h   hammer-on
| p   pull-off
| ~   vibrato
| +   harmonic
| x   Mute note
| b   Bend
| pb  Pre-bend
| br  Bend release
| pbr Pre-bend release
| brb Bend release bend

************************************
Добавлено: 26.04.2016
Другие материалы по этой песне:
  • Аккорды и текст

Страница создана 26.04.2016
http://primanota.ru/misc-unsigned-bands/cautious-mind-race-chords.htm
Привет, Гость.
Предлагаем пройти революционный курс по гитаре.
Подарок от PrimaNota.Ru, забирай!