PrimaNota.ru - самый крупный в мире бесплатный архив песенных текстов, аккордов, табулатур и нот


Misc Unsigned Bands - Tavern Music Pirates Of The Caribbean Game - таба, видео

Регистрация Запомнить меня
Войти через:  Facebook Google Twitter Vk Yandex Mail.ru

Misc Unsigned Bands - Tavern Music Pirates Of The Caribbean Game - таба, видео

Печатать
Просмотров: 140
Уроки эстрадного вокала в Санкт-Петербурге
Tavern music from Pirates of the Caribbean game developed by russian company Akella
and published by Bethesda Softworks.

https://en.wikipedia.org/wiki/Pirates_of_the_Caribbean_(video_game)


Not really sure who the author of the song is, as far as I know this is an old celtic melody.
It was also featured in Heroes IV.

Check it out here https://www.youtube.com/watch?v=sWkq2l8AMlU

And my cover https://soundcloud.com/karlojurisic/potc-tavern-cover
I used an acoustic guitar, ukulele and a small sugar bag (one you get when you order a coffee :D)



e|---------------7---7----7-10-7---7----7------------------------|
B|--------7-8-10-------10------------10---8-7--------------------|
G|--9p7-9--------------------------------------------------------| Main melody
D|---------------------------------------------------------------|
A|---------------------------------------------------------------|
E|---------------------------------------------------------------|

e|----------------7---7----7-10-7---7----7-----------------------|
B|----7-8/10-8-10-------10------------10---8-7-------------------|
G|--9------------------------------------------------------------|
D|---------------------------------------------------------------|
A|---------------------------------------------------------------|
E|---------------------------------------------------------------|

e|-10-12-14-15-14p15-12----12------------------------------------|
B|----------------------15----12-10-12-12----(Repeat main melody)|
G|---------------------------------------------------------------| X2
D|---------------------------------------------------------------|
A|---------------------------------------------------------------|
E|---------------------------------------------------------------|

e|---------------------------------------------------------------|
B|----7-8p7----7-8p7---------------10-12p10----------------------|
G|--9--------9-------ETC...-----12------------(Upper harmony)----| Harmony part
D|---------------------------------------------------------------|
A|---------------------------------------------------------------|
E|---------------------------------------------------------------|


Chords are Em, D, C, D through the whole thing. First hit the bass note, then follow up with two 
strums.
Добавлено: 17.02.2016
Другие материалы по этой песне:
  • Аккорды и текст

Страница создана 17.02.2016
http://primanota.ru/misc-unsigned-bands/tavern-music-pirates-of-caribbean-game-chords.htm
Привет, Гость.
Предлагаем пройти революционный курс по гитаре.
Подарок от PrimaNota.Ru, забирай!