PrimaNota.ru - самый крупный в мире бесплатный архив песенных текстов, аккордов, табулатур и нот


Misc Unsigned Bands - The Cautious - Mislead - таба

Регистрация Запомнить меня
Войти через:  Facebook Google Twitter Vk Yandex Mail.ru

Misc Unsigned Bands - The Cautious - Mislead - таба

Печатать
Просмотров: 27
-------------------------------------------------------------------------------
                           MISLEAD - The Cautious
-------------------------------------------------------------------------------
Tabbed by: Ritwik Krishnan

Intro:
 Form (4 count in, 32 bars guitar/bass/drums)

Guitar 1 (CAPO 4):

e|-3-------3-------|
B|-3-------3-------|
G|-0-------0-------|
D|-2-------0-------|
A|-3-------2-------|
E|-x-------3-------|

(Cadd9, G)

Guitar 2 (CAPO 4):

e|-3-------3-------|
B|-3-------3-------|
G|-0-------0-------|
D|-2-------0-------|
A|-3-------2-------|
E|-x-------3-------|

(Cadd9, G)

Bass:

G|---------------------------------------------------------------------|
D|----------------------9------------------------------------9---9-----|
A|-7\0--------------7-------7-7-6------------------------9---------9---|
E|--------------------------------9-7\0--------------7-----------------|

Verse 1:
 Form (32 bars rhythm guitar/bass/drums/vocals, 32 bars lead and rhythm guitar/bass/drums/vocals)

Guitar 1 (CAPO 4):
 [only last 32 bars]

e|-------------------------------------------------------|
B|-----------3---------------------------3---------------|
G|-------0-------2-----2-----2/4-------0----2----2/4/2---|
D|---0h2---------------------------0h2-------------------|
A|-------------------------------------------------------|
E|-------------------------------------------------------|

e|-------------------------------------------------------|
B|-----------3-------------------------------------------|
G|-------0-------2-----2-----2/4---2p0---0--2----2p0-----|
D|---0h2-------------------------------2-----------------|
A|-------------------------------------------------------|
E|-------------------------------------------------------|

Guitar 2 (CAPO 4):

e|-3-------3-------|
B|-3-------3-------|
G|-0-------0-------|
D|-2-------0-------|
A|-3-------2-------|
E|-x-------3-------|

(Cadd9, G)

Bass:

G|---------------------------------------------------------------------|
D|---------------------------------------------------------------------|
A|-7\0----------------------7-7-6---------------------------------9----|
E|--------------------------------9-7\0-------------------------7------|

Chorus:
 Form (48 bars guitar/bass/drums/vocals)

Guitar 1 (CAPO 4):

e|-3-------3-------|
B|-3-------3-------|
G|-0-------0-------|
D|-2-------0-------|
A|-3-------2-------|
E|-x-------3-------|

(Cadd9, G)

Guitar 2 (CAPO 4):

e|-3-------3-------|
B|-3-------3-------|
G|-0-------0-------|
D|-2-------0-------|
A|-3-------2-------|
E|-x-------3-------|

(Cadd9, G)

Bass:

G|---------------------------------------------------------------------|
D|----------------------9------------------------------------9---9-----|
A|-7\0--------------7-------7-7-6------------------------9---------9---|
E|--------------------------------9-7\0--------------7-----------------|

Post-Chorus [CUT TIME]:
 Form (32 bars guitar/bass/drums)

Guitar 1 (CAPO 4):

e|-3-------3-------3---------------|
B|-3-------3-------3---------------|
G|-2-------0-------0---------------|
D|-0-------2-------0---------------|
A|-3-------3-------2---------------|
E|-x-------x-------3---------------|

(D/C, Cadd9, G)

Guitar 2 (CAPO 4):

e|-3-------3-------3---------------|
B|-3-------3-------3---------------|
G|-2-------0-------0---------------|
D|-0-------2-------0---------------|
A|-3-------3-------2---------------|
E|-x-------x-------3---------------|

(D/C, Cadd9, G)

Bass:

G|---------------------------------------------------------------------|
D|---------11---------------9--------------------------------9---9-----|
A|-9-----9----9---9-7-----7---7---7----------------------9---------9---|
E|----------------------------------7\0--------------7-----------------|

Verse 2:
 Form (64 bars lead and rhythm guitar/bass/drums/vocals)

Guitar 1 (CAPO 4):

e|-------------------------------------------------------|
B|-----------3---------------------------3---------------|
G|-------0-------2-----2-----2/4-------0----2----2/4/2---|
D|---0h2---------------------------0h2-------------------|
A|-------------------------------------------------------|
E|-------------------------------------------------------|

e|-------------------------------------------------------|
B|-----------3-------------------------------------------|
G|-------0-------2-----2-----2/4---2p0---0--2----2p0-----|
D|---0h2-------------------------------2-----------------|
A|-------------------------------------------------------|
E|-------------------------------------------------------|

Guitar 2 (CAPO 4):

e|-3-------3-------|
B|-3-------3-------|
G|-0-------0-------|
D|-2-------0-------|
A|-3-------2-------|
E|-x-------3-------|

(Cadd9, G)

Bass:

G|---------------------------------------------------------------------|
D|---------------------------------------------------------------------|
A|-7\0----------------------7-7-6---------------------------------9----|
E|--------------------------------9-7\0-------------------------7------|

Chorus (TABS SAME AS CHORUS 1)
 Form (48 bars guitar/bass/drums/vocals)

Post-Chorus [CUT TIME]:
 Form (32 bars guitar/bass/drums)

Solo/Bridge:
 Form (16 bars guitar/bass/drums, 8 bars break [just lead], 40 bars guitar/bass/drums)

Guitar 1 (NO CAPO) [SOLO] - NOT TABBED

Guitar 2 (CAPO 4):

e|-3-------3-------3---------------|
B|-3-------3-------3---------------|
G|-0-------2-------0---------------|
D|-2-------0-------2---------------|
A|-3-------3-------2---------------|
E|-x-------x-------0---------------|

(Cadd9, D/C, E minor)

Bass:

G|---------------------------------------------------------------------|
D|---------9---------------11--------------------------------6---6-----|
A|-7-----7---7---7-9-----9----9---9----------------------6---------6---|
E|----------------------------------4--------------4-------------------|

Chorus (TABS SAME AS CHORUS 1)
 Form (48 bars guitar/bass/drums/vocals)

Post-Chorus [CUT TIME]:
 Form (32 bars guitar/bass/drums)


************************************

| /   slide up
| \   slide down
| h   hammer-on
| p   pull-off
| ~   vibrato
| +   harmonic
| x   Mute note
| b   Bend
| pb  Pre-bend
| br  Bend release
| pbr Pre-bend release
| brb Bend release bend

************************************
Добавлено: 26.04.2016
Другие материалы по этой песне:
  • Аккорды и текст

Страница создана 26.04.2016
http://primanota.ru/misc-unsigned-bands/cautious-mislead-chords.htm
Привет, Гость.
Предлагаем пройти революционный курс по гитаре.
Подарок от PrimaNota.Ru, забирай!