PrimaNota.ru - самый крупный в мире бесплатный архив песенных текстов, аккордов, табулатур и нот


Misc Unsigned Bands - The Cautious - Pages Of Your Name - таба

Регистрация Запомнить меня
Войти через:  Facebook Google Twitter Vk Yandex Mail.ru

Misc Unsigned Bands - The Cautious - Pages Of Your Name - таба

Печатать
Просмотров: 42
-------------------------------------------------------------------------------
                     PAGES OF YOUR NAME - The Cautious
-------------------------------------------------------------------------------
Tabbed by: Ritwik Krishnan

Intro:
 Form (4 bars guitar, 8 bars guitar/vocals, 24 bars guitar/vocals/bass/drums)

Guitar 1:

e|-5-------9-------12---------------|
B|-7-------9-------12---------------|
G|-6-------11------14---------------|
D|-7-------11------14---------------|
A|-5-------9-------12---------------|
E|----------------------------------|

(Dmaj7, F#sus2, Asus2)

Guitar 2:

e|-5-------9-------12---------------|
B|-7-------9-------12---------------|
G|-6-------11------14---------------|
D|-7-------11------14---------------|
A|-5-------9-------12---------------|
E|----------------------------------|

(Dmaj7, F#sus2, Asus2)

Bass:

G|------------------------------------------------------------------|
D|------------------------------------------------------------------|
A|-5-----5-5-5---5--------------------------------------------------|
E|-----------------2-----2-2-2---0-5-----5-5-5---5--7---9---7---5---|

Verse 1:
 Form (8 bars bass/drums/vocals, 8 bars guitar/bass/drums/vocals)

Guitar 1:

e|------------------------------------------------------------------------------------|
B|-------7------------------9------------------12----------------------12-------------|
G|-----6---6-------------11-----------------14----14----------------14----14----------|
D|---7-------7---7----11-----------------14----------14----14----14----------14----14-|
A|-5-----------5----9-----------------12----------------12----12----------------12----|
E|------------------------------------------------------------------------------------|

e|------------------------------------------------------------------------------------|
B|-------7------------------9--9h10p9----------12----------------------12-------------|
G|-----6---6-------------11-----------------14----14----------------14----14----------|
D|---7-------7---7----11-----------------14----------14----14----14----------14----14-|
A|-5-----------5----9-----------------12----------------12----12----------------12----|
E|------------------------------------------------------------------------------------|

(Dmaj7, F#sus2, Asus2)

Guitar 2:

e|-5-------9-------12---------------|
B|-7-------9-------12---------------|
G|-6-------11------14---------------|
D|-7-------11------14---------------|
A|-5-------9-------12---------------|
E|----------------------------------|

(Dmaj7, F#sus2, Asus2)

Bass:

G|------------------------------------------------------------------|
D|------------------------------------------------------------------|
A|-5-----5-5-5---5--------------------------------------------------|
E|-----------------2-----2-2-2---0-5-----5-5-5---5--7---9---7---5---|

Chorus:
 Form (16 bars guitar/bass/drums/vocals)

Guitar 1:

e|-5-------9-------12---------------|
B|-7-------9-------12---------------|
G|-6-------11------14---------------|
D|-7-------11------14---------------|
A|-5-------9-------12---------------|
E|----------------------------------|

(Dmaj7, F#sus2, Asus2)

Guitar 2:

e|-5--------------------------------|
B|-7--------------------------------|
G|-6--------------------------------|
D|-7--------------------------------|
A|-5--------------------------------|
E|----------------------------------|

(Dmaj7)

Verse 2 (TABS SAME AS VERSE 1):
 Form (8 bars bass/drums/vocals, 8 bars guitar/bass/drums/vocals)

Chorus (TABS SAME AS FIRST CHORUS):
 Form (16 bars guitar/bass/drums/vocals)

Bridge:
 Form (16 bars guitar/bass/drums/vocals)

Guitar 1:

e|-5-------9-------12-------9-------7---|
B|-7-------9-------12-------10------x---|
G|-6-------11------13-------11------9---|
D|-7-------11------14-------11------9---|
A|-5-------9-------14-------9-------7---|
E|-----------------12-------------------|

(Dmaj7, F#sus2, E, F#min, E)

Guitar 2:

e|-5-------9-------12-------9-------7---|
B|-7-------9-------12-------10------x---|
G|-6-------11------13-------11------9---|
D|-7-------11------14-------11------9---|
A|-5-------9-------14-------9-------7---|
E|-----------------12-------------------|

(Dmaj7, F#sus2, E, F#min, E)

Bass:

G|-----------------------------------------------------------------|
D|-----------------------------------------------------------------|
A|-5-----5-5-5---5-------------------------------------------------|
E|-----------------2-----2-2-2---2-0-----0-0-0---0-2-2---2-0-0---0-|


Break:
 Form (8 bars bass)

Bass:

G|------------------------------------------------------------------|
D|------------------------------------------------------------------|
A|-5-----5-5-5---5--------------------------------------------------|
E|-----------------2-----2-2-2---0-5-----5-5-5---5--7---9---7---5---|

G|------------------------------------------------------------------|
D|------------------------------------------------------------------|
A|-5-----5-5-5---5--------------------------------------------------|
E|-----------------2-----2-2-2---0-5(hold out)----------------------|


Chorus (TABS SAME AS FIRST CHORUS)
 Form (16 bars guitar/bass/drums/vocals)

Final Jam (TABS SAME AS FIRST CHORUS)
 Form (16 bars guitar/bass/drums/vocals)

Outro (TECHNICALLY SAME AS BREAK):
 Form (16 bars bass)

Bass:

G|------------------------------------------------------------------|
D|------------------------------------------------------------------|
A|-5-----5-5-5---5--------------------------------------------------|
E|-----------------2-----2-2-2---0-5-----5-5-5---5--7---9---7---5---|

G|------------------------------------------------------------------|
D|------------------------------------------------------------------|
A|-5-----5-5-5---5--------------------------------------------------|
E|-----------------2-----2-2-2---0-5(hold out)----------------------|


************************************

| /   slide up
| \   slide down
| h   hammer-on
| p   pull-off
| ~   vibrato
| +   harmonic
| x   Mute note
| b   Bend
| pb  Pre-bend
| br  Bend release
| pbr Pre-bend release
| brb Bend release bend

************************************
Добавлено: 26.04.2016
Другие материалы по этой песне:
  • Аккорды и текст

Страница создана 26.04.2016
http://primanota.ru/misc-unsigned-bands/cautious-pages-of-your-name-chords.htm
Привет, Гость.
Предлагаем пройти революционный курс по гитаре.
Подарок от PrimaNota.Ru, забирай!