PrimaNota.ru - самый крупный в мире бесплатный архив песенных текстов, аккордов, табулатур и нот


Misc Unsigned Bands - The Brian Smith Band - Bill Oreillys Bar - таба

Регистрация Запомнить меня
Войти через:  Facebook Google Twitter Vk Yandex Mail.ru

Misc Unsigned Bands - The Brian Smith Band - Bill Oreillys Bar - таба

Печатать
Просмотров: 79
Уроки эстрадного вокала в Санкт-Петербурге
-------------------------------------------------------------------------------
                             Bill O'Reilly's Bar - The Brian Smith Band
-------------------------------------------------------------------------------
Tabbed by:J.P. Lupori
E-mail:jplupori@aol.com

Tuning: standard

Intro x 3
              Em                      C                       B7
e|------------------0---------------------------0----------------------0------[ 
B|------------------------------------------1---------------------------------|
G|------------0-------------------------0-------------------------2-----------|x3
D|---------2----------------------2--------------------------1----------------|
A|-----2---------------------3-------------------------2----------------------|
E|---0----------------------------------------------------------------------- |

Verse 

         Em                         A7

e|--0--0-0----0---0------------0----0-0----0---0---------------------------------|
B|--0--0-0----0---0------------2----2-2----2---2---------------------------------|
G|--0--0-0----0---0------------0----0-0----0---0---------------------------------| 
D|--2--2-2----2---2------------2----2-2----2---2---------------------------------|
A|--2--2-2----2---2------------0----0-0----0---0---------------------------------|
E|--0--0-0----0---0------------0----0-0----0---0---------------------------------|

Pre Chorus
         Em                           C                    B7
e|-------------------0------------------------0----------------0----------------|
B|---------------------------------------1------------------0------------------ |
G|--------------0--------------------0---------------------2--------------------| x3
D|----------2-------------------2----------------------1------------------------|
A|------2------------------3-----------------------2----------------------------|
E|---0------------------------------------------------------------------------  |

Chorus
           Em              A7
e|----------0------------0--0--0-------------------------------------------------|
B|--------0--------------2--2--2-------------------------------------------------|
G|-------0---------------0--0--0------------------------------------------------ |
D|-----2-----------------2--2--2------------------------------------------------ |
A|---2-------------------0--0--0-------------------------------------------------|
E|--0--------------------0--0--0-------------------------------------------------|

Verse 1

Em            A7             Em                 A7        Em            A7                 Em             A7
Just as I was leaving        headed out the door    some old bully man said to me that this place will be no
                                                                                                       more

Em                           A7       Em                    A7         Em                   A7       
Hey Billy don't you say it's so     have you heard the news     but I could tell by the look in his eye that

Em                     A7
I knew that it was true


Pre Chorus

Em                    C                     B7   It's a mad, mad world
              
Em                    C                     B7   When your breaking the girl
Em                    C                     B7    They're all.............

Chorus

Em                   A7 Em             A7     Em                A7    Em             A7
They're all tearin' down...Bill O'Reilly's Bar....They're all tearin' down...Bill O'Reilly's Bar....
They've Gone to Far!  Oh, yeah they've gone too far!

Verse 2

Seen your nose get bloody
Seen you on the floor
Seen a million girls turn you down so what you cryin' for

Those were the best times
Made me feel alive
Now your puttin' me on the street and I'll be home by five

Pre Chorus

Chorus

Verse 3 and 4

Now I know what you're thinkin'
We gotta keep our heads
We're gonna put 'em down and build it up instead

'cause those were the best times
made me feel alive
They're tryin' to put us on the street and send us home by five

Pre Chorus

Chorus-  Repeat as many times as the crowd will tolerate...

************************************
Добавлено: 26.04.2016
Другие материалы по этой песне:
  • Аккорды и текст

Страница создана 26.04.2016
http://primanota.ru/misc-unsigned-bands/brian-smith-band-bill-oreillys-bar-chords.htm
Привет, Гость.
Предлагаем пройти революционный курс по гитаре.
Подарок от PrimaNota.Ru, забирай!