PrimaNota.ru - самый крупный в мире бесплатный архив песенных текстов, аккордов, табулатур и нот


Misc Unsigned Bands - Sun Dragon - Green Tambourine - бас-таба

Регистрация Запомнить меня
Войти через:  Facebook Google Twitter Vk Yandex Mail.ru

Misc Unsigned Bands - Sun Dragon - Green Tambourine - бас-таба

Печатать
Просмотров: 59
Green Tambourine
Released by Sun Dragon round about the same time as The Lemon Pipers
version in February 1968. Sun Dragon rumoured to include three founder
members of Deep Purple.  Tab by bass50611.
For me a better version than the more well known one. Any comments
its bass254@btinternet.com

Intro:
     .           .
G|-----------------------------------------------------------|
D|---------------5---------5-5-5-5-5-5-5-5---5-5-5-5-5-5-5-5-|
A|-5/10---5/3---5---5\3---5----------------------------------|
E|-----------------------------------------------------------|

G|-----------------------------------------------------------------------|
D|-5-5-5-5-5-5-5-5---5-5-5-5-5-5-5-5---5-5-5-5-5-5-5-5---5-5-5-5-5-5-5-5-|
A|-----------------------------------------------------------------------|
E|-----------------------------------------------------------------------|
                     .        .
G|-----------------------------------|
D|-5-5-5-5-5-5-5-5---5--------5------|
A|---------------------5\3---5---5\3-|
E|-----------------------------------|

Verse:
    .         .         .         .            .          .           .
G|----------------------------------------------------------------------|
D|--5---------5---------5---------5-----------------2-3-4-5-------------|
A|-5---5\3---5---5\3---5---5\3---5---5\3---3-3-3---3-------5\3---1111---|
E|--------------------------------------------------------------------4-|
                  .          .           2nd & 3rd time:
G|-----------|----------------------|   |-----------|
D|-KICK DRUM-|---------------5------|   |-KICK DRUM-|
A|---ONLY----|-5/10---5\3---5---5\3-|   |---ONLY----|
E|-----------|----------------------|   |-----------|

REPEAT VERSE:

REPEAT INTRO:

REPEAT VERSE:

Outro:
      .          .
G|-----------------------------------------------------------|
D|---------------5---------5-5-5-5-5-5-5-5---5-5-5-5-5-5-5-5-|
A|-5/10---5/3---5---5\3---5----------------------------------|
E|-----------------------------------------------------------|
                     .
G|-----------------------------------|
D|-5-5-5-5-5-5-5-5---5---------------|
A|----------------------5\3---1111---|
E|---------------------------------4-|

REPEAT KICK DRUM TO END:
Добавлено: 20.08.2013
Другие материалы по этой песне:
  • Аккорды и текст

Страница создана 20.08.2013
http://primanota.ru/misc-unsigned-bands/sun-dragon-green-tambourine-chords.htm
Привет, Гость.
Предлагаем пройти революционный курс по гитаре.
Подарок от PrimaNota.Ru, забирай!