PrimaNota.ru - самый крупный в мире бесплатный архив песенных текстов, аккордов, табулатур и нот


Misc Unsigned Bands - Toxic Crusade - Harvest Of War - бас-таба

Регистрация Запомнить меня
Войти через:  Facebook Google Twitter Vk Yandex Mail.ru

Misc Unsigned Bands - Toxic Crusade - Harvest Of War - бас-таба

Печатать
Просмотров: 63
()= held note
h = hammer on
p = pull off
/ = slide up

http://facebook.com/toxic.crusade
http://reverbnation.com/toxiccrusademetal

Drop D Tuning

Intro
G|-----------------------------------------|
d|-----------------------------------------|
A|-----------------------------------------|
D|----0-----------------------------(0)----|

G|----------------------------------------------------------------|
d|----------------------------------------------------------------|
A|----------------------------------------------------------------|
D|0---------------0---------------0-------0-------0-------0-------|

G|---------------------------------|
d|---------------------------------|
A|---------------------------5---5-|
D|0--0-0-0-0-0-0-0-0-0-0-0-0-------|

("two-three-four!")
                                  Tail
G|-------------------------------|---|
d|-------------------------------|---|
A|-------------------------------|---|
D|0---0-0-0-0-0-5--4-3h4-2h3-1h2-|-0-|
                      
                       (2x)
G|--------------------|--------------|
d|--------------------|--------------|
A|--------------------|------------5-|
D|-------0-------(0)--|0-0-0-0/5-----|

Verse
(2x)
G|-----------------------------|-----------------------------|
d|-----------------------------|-----------------------------|
A|--------5---5-6---6-6--------|--------5---5-6---6-6--------|
D|0---0-0----------------3h5p3-|0---0-0----------------3h5p3-|

G|-----------------------------|----------------------------|
d|-----------------------------|----------------------------|
A|--------5---5-6---6-6--------|------------5-------------5-|
D|0---0-0----------------3h5p3-|0-0-0-0/5-----0-0-0-0/5-----|

Chorus
(2x)
G|----------------------------|-----------------------------|
d|----------------------------|-----------------------------|
A|5------------6---6-6---8p6--|11111111111111111111111111111|
D|-------0-0-0----------------|-----------------------------|

G|----------------------------|-----------------------------|
d|----------------------------|-----------------------------|
A|5------------6---6-6---8p6--|11111111111111133333333333333|
D|-------0-0-0----------------|-----------------------------|

Verse 2x
Chorus 2x

Bridge
(4x)
4/4                          3/4
G|--------------------------|----------------------------|
d|--------------------------|----------------------------|
A|--------------------------|----------------------------|
D|22222222222222222222222222|0---(0)--0---(0)--0---(0)--0|

Tail
G|-----------------------------------------------|
d|-----------------------------------------------|
A|-----------------------------------------------|
D|0---(0)--0---(0)--0---(0)--0---(0)--12---(12)--|


G|---------------------------------|
d|---------------------------------|
A|---------------------------------|
D|000000000000000000000000000000000|

(8x)
G|----------------------------------------------------------------|
d|----------------------------------------------------------------|
A|----------------------------------------------------------------|
D|0000000000000000000000000000000055555555555555552222222233333333|

Tail
G|---------------|
d|---------------|
A|---------------|
D|0------(0)-----|
 (ring until breakdown)

Breakdown
(12x)
G|-------------------------------|
d|-------------------------------|
A|-------------------------------|
D|0-0-----0-0-----1--(1)-0-0-----|

"Other part"
(4x)
G|----------------------------------------------------------------|
d|----------------------------------------------------------------|
A|----------------------------------------------------------------|
D|0-0-0-0-0-0-0-0-0-0-0-0-0-0-0-0-3-3-3-3-3-3-3-3-2-2-2-2-8-8-8-8-|

Hold for guitar riff

(4x)                                                         
G|-----------------------------------------|----------------|
d|-----------------------------------------|----------------|
A|-----------------------------------------|3-3-3-3-5-5-5-5-|
D|0h2--0h2--0h2--0h2--0h2--0-0h2--0h2--0h2-|----------------|

Tail
G|---------------------------------------------------------------|
d|---------------------------------------------------------------|
A|7-7-7-7-7-7-7-7-12-12-12-12-12-12-12-12-13-13-13-13-13-13-13---|
D|---------------------------------------------------------------|

Verse 4x
Hold open D
Verse 1x
Добавлено: 30.10.2013
Другие материалы по этой песне:
  • Аккорды и текст

Страница создана 30.10.2013
http://primanota.ru/misc-unsigned-bands/toxic-crusade-harvest-of-war-chords.htm
Привет, Гость.
Предлагаем пройти революционный курс по гитаре.
Подарок от PrimaNota.Ru, забирай!