PrimaNota.ru - самый крупный в мире бесплатный архив песенных текстов, аккордов, табулатур и нот


Misc Unsigned Bands - Their Theyre There - End And End - бас-таба, видео

Регистрация Запомнить меня
Войти через:  Facebook Google Twitter Vk Yandex Mail.ru

Misc Unsigned Bands - Their Theyre There - End And End - бас-таба, видео

Печатать
Просмотров: 64
Уроки эстрадного вокала в Санкт-Петербурге
Intro
G|---------------------------------------------------------------|
D|---------------------------------------------------------------|
A|---------------------------------------------------------------|
E|4----------------4----------------4--------4--------4--------4-|

G|-----------------------------------------------------------------|
D|-----------------------------------------------------------------|
A|------------------------------------------------33334444---------|
E|4---4---4---4---4---4---4---4---4--------------------------------|

Verse
G|---------------------0110-----------------------01135-------------|
D|-----1/3\1---------------1--------1/3\1---------------------------|
A|-----------3-1-3-----------------------3-1-3----------------------|
E|4-----------------1---------4-----------------1-------------------|
//That part repeats, but on the repetition, it does this after the 0110 on the G string.

G|-----------------------------------------------------------------|
D|-----------------------------------------------------------------|
A|4-4-4-4-4-4-4-4-4-4-4-4-4-6-6-6----------------------------------|
E|-----------------------------------------------------------------|

//Then it does this
G|---------------------0110-----------------------01135-------------|
D|-----1/3\1---------------1--------1/3\1---------------------------|
A|-----------3-1-3-----------------------3-1-3----------------------|
E|4-----------------1---------4-----------------1-------------------|
//Again it repeats, but does the following after the 0110 on the g string

G|----------------------------------------------------------------------------|
D|----------------------------------------------------------------------------|
A|4444444444444 666 44444444 1111 3333 4444444444444 666 44444444 66666666--|
E|-----------------------------------------------------------------------------|

Then it goes to the Chorus:
G|-----------------------------------------------------------------|
D|-----------------------------------------------------------------|
A|----------------3333333344444444---------------------------------|
E|444444444444444--------------------------------------------------|
//This repeats 3 times, then goes here:

G|---------------------------------------------------------------|
D|---------------------------------------------------------------|
A|8888 6666 3333 4444--------------------------------------------|
E|---------------------------------------------------------------|

It does this again 3 times:
G|-----------------------------------------------------------------|
D|-----------------------------------------------------------------|
A|----------------3333333344444444---------------------------------|
E|444444444444444--------------------------------------------------|

//and this after the 3rd repetition
G|---------------------------------------------------------------|
D|---------------------------------------------------------------|
A|8888 6666 3333 4444--------------------------------------------|
E|---------------------------------------------------------------|


Bridge part 1
G|---------------------------------------------------------------|
D|---------------------------------------------------------------|
A|---------------------------------------------------------------|
E|4----------------4----------------4--------4--------4--------4-|

G|-----------------------------------------------------------------|
D|-----------------------------------------------------------------|
A|------------------------------------------------33334444---------|
E|4---4---4---4---4---4---4---4---4--------------------------------|

Bridge part 2 (switches to 9/8)
G|---------------------------------------------------------------------|
D|---------------------------------------------------------------------|
A|11-11--11-11--------11-10---11-10------10-8----10-8-----8------------|
E|---------------------------------------------------------8----8-9----|

Evan Weiss is amazing.

Their / They're / There's website: https://www.facebook.com/theirtheyrethere
Добавлено: 15.02.2014
Другие материалы по этой песне:
  • Аккорды и текст

Страница создана 15.02.2014
http://primanota.ru/misc-unsigned-bands/their-theyre-there-end-and-end-chords.htm
Привет, Гость.
Предлагаем пройти революционный курс по гитаре.
Подарок от PrimaNota.Ru, забирай!