PrimaNota.ru - самый крупный в мире бесплатный архив песенных текстов, аккордов, табулатур и нот


Misc Unsigned Bands - Toxic Crusade - Knuckles Up - бас-таба

Регистрация Запомнить меня
Войти через:  Facebook Google Twitter Vk Yandex Mail.ru

Misc Unsigned Bands - Toxic Crusade - Knuckles Up - бас-таба

Печатать
Просмотров: 70
()= held note

http://facebook.com/toxic.crusade
http://reverbnation.com/toxiccrusademetal

Intro
G|-----------------------------------|
D|-----------------------------------|
A|0--------0--------0--------0-(0)-0-|
E|-----------------------------------|
  ( c     h     o    k    e    s)

G|-----------------------------------|
D|-----------------------------------|
A|0---(0)--0---(0)--0---(0)--0---(0)-|
E|-----------------------------------|

Verses
(4x)
G|----------------------------------------------------------------|
D|----------------------------------------------------------------|
A|0-0-0-0-3--5--3-0-0-0-0-3--5--3-0-0-0-0-3--5--3-3--5--3-3--5--3-|
E|----------------------------------------------------------------|

Chorus
G|-----------------------------------------------------------------------|
D|-----------------------------------------------------------------------|
A|0-------3-------5-------6--6--6-6--6--6-0-------3-------5-------6---5--|
E|-----------------------------------------------------------------------|

Verse 2x
Chorus
Verse riff for the rest of the song, besides drum solo.
Добавлено: 04.11.2013
Другие материалы по этой песне:
  • Аккорды и текст

Страница создана 04.11.2013
http://primanota.ru/misc-unsigned-bands/toxic-crusade-knuckles-up-chords.htm
Привет, Гость.
Предлагаем пройти революционный курс по гитаре.
Подарок от PrimaNota.Ru, забирай!