PrimaNota.ru - самый крупный в мире бесплатный архив песенных текстов, аккордов, табулатур и нот


Misc Unsigned Bands - Toxic Crusade - Zombie Priests - бас-таба

Регистрация Запомнить меня
Войти через:  Facebook Google Twitter Vk Yandex Mail.ru

Misc Unsigned Bands - Toxic Crusade - Zombie Priests - бас-таба

Печатать
Просмотров: 78
\ = slide down
()= held note
h = hammer on

http://facebook.com/toxic.crusade
http://reverbnation.com/toxiccrusademetal



Intro
G|--------------|---------------|
D|--------------|---------------|
A|--------------|---------------|
E|--0--0--0-----|-0--0-0--0--0-0|
    (chokes)

(3x)
G|------------------------|---------------------------|
D|------------------------|---------------------------|
A|5h7--5h7-5h7---------7-7|---------------------------|
E|-------------0-0-0-0----|0-0-0-0-0-0-0-0-0-0-0-0-12\|

Verse
(4x)
G|-------------------------------|----------------------------|
D|-------------------------------|----------------------------|
A|----------------1--------------|----------------1--------5--|
E|0-0-3-0-0-5-0-0---0-0-3-0-0-5-5|0-0-3-0-0-5-0-0---0-0-3----3|

Pre-Chorus
G|--------------------------------|
D|--------------------------------|
A|2-2-2-2-2-2-2-2-3-3-3-3-3-------|
E|--------------------------------|

Chorus
(4x)                                                                Tail
G|------------------------------------------------------------------|---|
D|------------------------------------------------------------------|---|
A|------------------------------------------------------------------|---|
E|0-0-0-0-0-0-0-0-8-8-7-7-5-5-3-3-0-0-0-0-0-0-0-0-7-7-8-8-10-10-8-8-|-0-|

Verse 4x
Pre-Chorus
Chorus 4x

Tail
G|----------------|
D|----------------|
A|----------------|
E|-0--------(0)-0-|

Interlude
(x18)
G|----------------------------------------------------------------|---|
D|----------------------------------------------------------------|---|
A|----------------------------------------------------------------|---|
E|0---0-0-0---0-0-0---0-0-0---0-0-3---0-0-3---0-0-5---0-0-7---5---|-0-|

Verse 4x
Pre-Chorus
Chorus 4x

Outro
G|----------------------------------------------------------------|
D|----------------------------------------------------------------|
A|----------------------------------------------------------------|
E|0-0-0-0-0-0-0-0-0-0-0-0-0-0-0-0-0-0-0-0-0-0-0-0-0-0-0-0-0-0-0-0-|

G|----------------------------------------------------------------|
D|----------------------------------------------------------------|
A|----------------------------------------------------------------|
E|0000000000000000000000000000000000000000000000000000000000000000|

G|------------------------------------|
D|------------------------------------|
A|------------------------------------|
E|0--------0--------0--------0--------|

G|--------------------------------------|
D|--------------------------------------|
A|--------------------------------------|
E|0--------0--------3--------0--------0-|
Добавлено: 07.08.2013
Другие материалы по этой песне:
  • Аккорды и текст

Страница создана 07.08.2013
http://primanota.ru/misc-unsigned-bands/toxic-crusade-zombie-priests-chords.htm
Привет, Гость.
Предлагаем пройти революционный курс по гитаре.
Подарок от PrimaNota.Ru, забирай!