PrimaNota.ru - самый крупный в мире бесплатный архив песенных текстов, аккордов, табулатур и нот


Misc Unsigned Bands - The Fianl Effect - Some Shit - бас-таба

Регистрация Запомнить меня
Войти через:  Facebook Google Twitter Vk Yandex Mail.ru

Misc Unsigned Bands - The Fianl Effect - Some Shit - бас-таба

Печатать
Просмотров: 60
Bass Tab
Standard Tuning
Riff 1
G|---------------------------------|
D|0000333377777777-0000333377777777|
A|---------------------------------|
E|---------------------------------|

Riff 2
G|-----------------------------------------------------|
D|0000-0-----------------------------------------------|
A|-----------------------------------------------------|
E|----------------3333-3-----5555-5-----5555-5---------|

Riff 3
G|---------------------------------------------------------|
D|0000-0000------------------------------------------------|
A|---------------------------------------------------------|
E|--------------3333-3333-5555-5555-5555-5555--------------|

Riff 4
G|-------------------------|
D|0-000-0-00--0—00---------|
A|-------------------------|
E|-------------------------|

Riff 5

G|0-000-0-00--0—00---------|
D|-------------------------|
A|-------------------------|
E|-------------------------|

Riff 1x4
Riff 2x2
Riff 3x2
Riff 1x2
Riff 4x2
Riff 5
Riff 4x2
Riff 1x2
Добавлено: 20.08.2013
Другие материалы по этой песне:
  • Аккорды и текст

Страница создана 20.08.2013
http://primanota.ru/misc-unsigned-bands/the-fianl-effect-some-shit-chords.htm
Привет, Гость.
Предлагаем пройти революционный курс по гитаре.
Подарок от PrimaNota.Ru, забирай!