PrimaNota.ru - самый крупный в мире бесплатный архив песенных текстов, аккордов, табулатур и нот


Misc Unsigned Bands - Stellar Young - Animals Erik - таба

Регистрация Запомнить меня
Войти через:  Facebook Google Twitter Vk Yandex Mail.ru

Misc Unsigned Bands - Stellar Young - Animals Erik - таба

Печатать
Просмотров: 38
(/) Slide Up  (\) Slide Down  (h) Hammer On  (p) Pull Off  (b) Bend (r) Release (v) Vibrato

Artist: Stellar Young
Song: Animals
Album: Everything at Once
Guitar Part: Erik Flora
Tuning: Standard
Note: Listen to song for strumming

Intro/Verse 1: Repeat 3x
E|------------------------------------------------------------|
B|------------------------------------------------------------|
G|-----------0---------------------------0--------4b5--4p0----|
D|--------4-----------4\2--2p0--------4-----------------------|
A|-----5---------------------------5--------------------------|
E|--3-----------3--3------------3-----------3--3--------------|


(Intro/Verse 1 CONT)
E|------------------------------------------------------------|--|
B|------------------------------------------------------------|--|
G|--------4--5--------4\2--2p0--------4--5--------------------|--|
D|-----5---------------------------5--------------------------|--|
A|--3-----------3--3------------3-----------3--3--0--2--2--0--|--|
E|------------------------------------------------------------|--|


Chorus: Repeat 2x
E|--x--x--x--x--x--x--x--x--x----x--x--x--x--x--x--x--x--x----|
B|--3--x--x--3--3--x--x--3--x----3--x--x--3--3--x--x--x--x----|
G|--0--x--x--0--0--x--x--0--x----0--x--x--0--0--x--x--x--x----|
D|--4--x--x--4--4--x--x--4--x----4--x--x--4--4--x--2--2--x----|
A|--5--x--x--5--5--x--x--5--x----5--x--x--5--5--x--x--x--x----|
E|--3--x--x--3--3--x--x--3--x----3--x--x--3--3--x--3--3--x----|


(Chorus CONT)
E|--x--x--x--x--x--x--x--x--x----x--x--x--x--x--x--x--x--x----|--|
B|--5--x--x--5--5--x--x--5--x----5--x--x--5--5--x--x--x--x----|--|
G|--4--x--x--4--4--x--x--4--x----4--x--x--4--4--x--2--2--x----|--|
D|--5--x--x--5--5--x--x--5--x----5--x--x--5--5--x--x--x--x----|--|
A|--3--x--x--3--3--x--x--3--x----3--x--x--3--3--x--3--3--x----|--|
E|--x--x--x--x--x--x--x--x--x----x--x--x--x--x--x--x--x--x----|--|


Interlude: (Played on top of Verse 2 part)
E|----------------------------------------------------------------------------------|--|
B|--12------12b13b12b13b12------12\8--10--12--------12b13b12b13b12b13b12b13--8------|--|
G|----------------------------------------------------------------------------------|--|
D|----------------------------------------------------------------------------------|--|
A|----------------------------------------------------------------------------------|--|
E|----------------------------------------------------------------------------------|--|


Verse 2: Repeat 2x
E|------------------------------------------------------------|
B|------------------------------------------------------------|
G|-----------0---------------------------0--------4b5--4p0----|
D|--------4-----------4\2--2p0--------4-----------------------|
A|-----5---------------------------5--------------------------|
E|--3-----------3--3------------3-----------3--3--------------|


(Verse 2 CONT)
E|------------------------------------------------------------|--|
B|------------------------------------------------------------|--|
G|--------4--5--------4\2--2p0--------4--5--------------------|--|
D|-----5---------------------------5--------------------------|--|
A|--3-----------3--3------------3-----------3--3--0--2--2--0--|--|
E|------------------------------------------------------------|--|


Chorus: Repeat 2x
E|--x--x--x--x--x--x--x--x--x----x--x--x--x--x--x--x--x--x----|
B|--3--x--x--3--3--x--x--3--x----3--x--x--3--3--x--x--x--x----|
G|--0--x--x--0--0--x--x--0--x----0--x--x--0--0--x--x--x--x----|
D|--4--x--x--4--4--x--x--4--x----4--x--x--4--4--x--2--2--x----|
A|--5--x--x--5--5--x--x--5--x----5--x--x--5--5--x--x--x--x----|
E|--3--x--x--3--3--x--x--3--x----3--x--x--3--3--x--3--3--x----|


(Chorus CONT)
E|--x--x--x--x--x--x--x--x--x----x--x--x--x--x--x--x--x--x----|--|
B|--5--x--x--5--5--x--x--5--x----5--x--x--5--5--x--x--x--x----|--|
G|--4--x--x--4--4--x--x--4--x----4--x--x--4--4--x--2--2--x----|--|
D|--5--x--x--5--5--x--x--5--x----5--x--x--5--5--x--x--x--x----|--|
A|--3--x--x--3--3--x--x--3--x----3--x--x--3--3--x--3--3--x----|--|
E|--x--x--x--x--x--x--x--x--x----x--x--x--x--x--x--x--x--x----|--|


Outro: (Played with slight analog delay)
E|--------------------------------------------------------------|
B|--------------------------------------------------------------|
G|-----------------0-----------------------------0--------------|
D|--------------4-----------------------------4-----------------|
A|-----5-----5-----------5-----5-----5-----5-----------5-----5--|
E|--3-----3-----------3-----3-----3-----3-----------3-----3-----|



E|--------------------------------------------------------------|--|
B|--------------------------------------------------------------|--|
G|--------------4--5--------------------------4--5--------------|--|
D|-----5-----5-----------5-----5-----5-----5-----------5-----5--|--|
A|--3-----3-----------3-----3-----3-----3-----------3-----3-----|--|
E|--------------------------------------------------------------|--|


(Played with slide)
E|--0--3------3--7------7--0------|--|
B|--0--3------3--7------7--0------|--|
G|--------------------------------|--|
D|--------------------------------|--|
A|--------------------------------|--|
E|--------------------------------|--|


Duel guitar solo (higher part)
E|----------------------------------------------------------|
B|----------12--12------------------------------------------|
G|----------------------------14--14------------12--12------|
D|--14--12------------14--12------------14--12--------------|
A|----------------------------------------------------------|
E|----------------------------------------------------------|



E|-----------------------------------------------------------|
B|----------12--12----------------------15\12--12------------|
G|----------------------------14--14-------------------------|
D|--14--12------------14--12---------------------------------|
A|-----------------------------------------------------------|
E|-----------------------------------------------------------|



E|----------------------------------12--12----14b15b14------------------------------|
B|------15--15--------15--15----------------------------15----15b17b15b17b15b17b15--|
G|--11------------11------------12--------------------------------------------------|
D|----------------------------------------------------------------------------------|
A|----------------------------------------------------------------------------------|
E|----------------------------------------------------------------------------------|



E|------------------------------------------------------------------------------------|--|
B|------15----15b17b15b17b15b17b15------15------15b17b15b17b15b17b15--12--------------|--|
G|--11------------------------------11------11----------------------------14--12------|--|
D|------------------------------------------------------------------------------------|--|
A|------------------------------------------------------------------------------------|--|
E|------------------------------------------------------------------------------------|--|


Heavy outro part:
E|--x----------x----------3------3------3------3------|--|
B|--3----------3----------3------3------3------3------|--|
G|--0----------0----------4------5------4------5------|--|
D|--4----------4----------5------5------5------5------|--|
A|--5----------5----------3------3------3------3------|--|
E|--3----------3----------x------x------x------x------|--|

Stellar Young music available for pick what you pay (even nothing) at 
stellaryoungmusic.bandcamp.com
Добавлено: 24.11.2013
Другие материалы по этой песне:
  • Аккорды и текст

Страница создана 24.11.2013
http://primanota.ru/misc-unsigned-bands/stellar-young-animals-erik-chords.htm
Привет, Гость.
Предлагаем пройти революционный курс по гитаре.
Подарок от PrimaNota.Ru, забирай!