PrimaNota.ru - самый крупный в мире бесплатный архив песенных текстов, аккордов, табулатур и нот


Misc Unsigned Bands - Stellar Young - We Own Nothing Kyle - таба

Регистрация Запомнить меня
Войти через:  Facebook Google Twitter Vk Yandex Mail.ru

Misc Unsigned Bands - Stellar Young - We Own Nothing Kyle - таба

Печатать
Просмотров: 73
Уроки эстрадного вокала в Санкт-Петербурге
(/) Slide Up  (\) Slide Down  (h) Hammer On  (p) Pull Off  (b) Bend (r) Release (v) Vibrato

Artist: Stellar Young
Song: We Own Nothing
Album: Everything at Once
Guitar Part: Kyle Hatch
Tuning: Standard
Note: Listen to track for strumming


Verse 1 (slide into octaves)
E|-----14-------------------------------14-----------------------------14---------------------------|
B|-------------14------------------------------14--------------------------------14-----------------|
G|-11------------------15------13--11-----------------15------11--11-------------------15--------13-|
D|---------11------------------------------11-------------------------------11----------------------|
A|-----------------13------11---------------------13--------------------------------13-------11-----|
E|--------------------------------------------------------------------------------------------------|

E|--------------------|
B|--------------------|
G|--15-\-11-\-10------|
D|--------------------|
A|--13-\-9--\-8-------|
E|--------------------|



Verse 2
E|----------------------------|
B|--14--11--9--7--9--11-------|
G|--11--10--8--8--6--8--------|
D|--11--11--8--8--6--11-------|
A|----------------8--8--------|
E|----------------------------|



Chorus
E|-----------------------------------------------------------------------------------|
B|--------2--------7--------7--------9---------2-----2--------9---11--------7--9-----|
G|--------3--------8--------8--------10--------3-----3--------10--10--------8--8-----|
D|--------4-----8--------8--------9------------4-----4-----9--9---9------8--8--8-----|
A|-----4------------------------------------4----------------------------------------|
E|--2--------7--------7--------9---------2--------2-----9-------------7--------------|



Interlude
E|--------------------------------------------------------------------------------|
B|--------------------------------------------------------------------------------|
G|---------11---------11---------11-\-10---------/10------------10-h-11-p-10-\-8--|
D|-----11---------11---------11----------11---------11------11--------------------|
A|-13---------13---------13------------------13---------13------------------------|
E|--------------------------------------------------------------------------------|

E|------------------------------------------------------------------------------|
B|--------------------------------------------------------------9-----9-----12--|
G|------------------------------------------------------------------------------|
D|-9--8-h-9-p-8-h-9-p-8-h-9-p-8-h-9-p-8-h-9-p-8--6-/-6------6------8------------|
A|------------------------------------------------------------------------------|
E|------------------------------------------------------------------------------|



Bridge (tremolo picking)
E|---------------------------------------------------------------------------------|
B|-12-12-12-12-12-12-11-11-7-7-7-7-7-7-7-7-7-4-4-4-4-4-4-6-6-4-4-4-4-4-4-2-2-------|
G|---------------------------------------------------------------------------------|
D|---------------------------------------------------------------------------------|
A|---------------------------------------------------------------------------------|
E|---------------------------------------------------------------------------------|

E|-------------------------6-6-6-6-6-6-6-6-2-2-2-2-2-2-4-4-2-2-2-2-2-2-1-1---------|
B|-12-12-12-12-12-12-11-11-7-7-7-7-7-7-7-7-4-4-4-4-4-4-6-6-4-4-4-4-4-4-2-2---------|
G|---------------------------------------------------------------------------------|
D|---------------------------------------------------------------------------------|
A|---------------------------------------------------------------------------------|
E|---------------------------------------------------------------------------------|



Outro
E|--2--6--6-------------------|
B|--2--6--7-------------------|
G|--3--6--6--15-\-10-\-3------|
D|--4--8--8-------------------|
A|--4--9--9-------------------|
E|--2--6--6--14-\-9--\-2------|



Stellar Young music available for “pick what you pay (even nothing)” at 
stellaryoungmusic.bandcamp.com
Добавлено: 16.06.2013
Другие материалы по этой песне:
  • Аккорды и текст

Страница создана 16.06.2013
http://primanota.ru/misc-unsigned-bands/stellar-young-we-own-nothing-kyle-chords.htm
Привет, Гость.
Предлагаем пройти революционный курс по гитаре.
Подарок от PrimaNota.Ru, забирай!