PrimaNota.ru - самый крупный в мире бесплатный архив песенных текстов, аккордов, табулатур и нот


Misc Unsigned Bands - Stellar Young - Playing With Guns Kyle - таба

Регистрация Запомнить меня
Войти через:  Facebook Google Twitter Vk Yandex Mail.ru

Misc Unsigned Bands - Stellar Young - Playing With Guns Kyle - таба

Печатать
Просмотров: 49
(/) Slide Up  (\) Slide Down  (h) Hammer On  (p) Pull Off  (b) Bend (r) Release (v) Vibrato

Artist: Stellar Young
Song: Playing With Guns
Album: Everything at Once
Guitar Part: Kyle Hatch
Tuning: Standard
Note: Listen to track for strumming


Verse 1
E|-------------5------------------------|
B|----------6-----6----------10--11-----|
G|-------5-----------5-------10--10-----|
D|--5h8-----------------10-------12-----|
A|--------------------------------------|
E|--------------------------------------|


Verse 2
E|-------------5----------------|
B|----------6-----6-----1--3----|
G|-------5-----------5--2--3----|
D|--5h8-----------------3--3----|
A|------------------------------|
E|------------------------------|


Chorus
E|--6--------------10--13--11--10--6--------------10--17--13---------|
B|--8----------11------15--10--10--8----------11------15--10---------|
G|--7------12----------14--10--10--7------12----------15--10---------|
D|--8--13--------------15--10--10--8--13--------------15--12---------|
A|--6------------------------------6---------------------------------|
E|-------------------------------------------------------------------|


Verse 3
E|-----------------------------------------------------------------------------|
B|----------3-3---------------3-3---------------3-3----------3-3---------------|
G|-----3-3-----3-3-----3-3--------3-3------3-3----------3-3------------3-3-----|
D|-5-5-------------5-5----------------3-3----------5-5------------5-5----------|
A|-----------------------------------------------------------------------------|
E|-----------------------------------------------------------------------------|


Crunch
E|-----      |----------------|
B|--1-       |-10--10--11-----|
G|--3-x4     |-10--10--10-----|
D|--3-       |-10--10--12-----|
A|-----      |----------------|
E|------     |----------------|



Bridge Swells                          x2
E|-------------------------- |-------------------------|
B|--1--3--1--3--11--10-------|1--3--6--8--11--10-------|
G|--2--3--2--3--10--10-------|2--3--5--7--10--10-------|
D|--3--5--3--5--8---8--------|3--5--8--8--8---8--------|
A|---------------------------|-------------------------|
E|---------------------------|-------------------------|


Bridge 1
E|------------------------------------------------------------------------------------------|
B|--------6--------6--------3--------3--------6--------6----------3--------------3----------|
G|-----5--------5--------3--------3--------5--------5----------3-----3--------3-----3-------|
D|--7--------8--------5--------3--------7--------8--------5h7-----------7--3----------------|
A|------------------------------------------------------------------------------------------|
E|------------------------------------------------------------------------------------------|


Bridge 2
E|----------------------------------------------------6-|
B|--6--6--11--8--11--6--6--6--11--8---11--6---8---------|
G|--5--5--12--7--10--7--5--5--12--7---10--7---7---------|
D|--7--8--13--8--12--8--7--8--13--8---12--8---8---------|
A|----------------------------------------------------6-|
E|------------------------------------------------------|

Structure:
Verse 1  x3
Verse 2
Chorus  x2
Verse 1
Verse 3 x4
Crunch
Verse 1  x2
Verse 3
Chorus x2
Bridge Swells
Bridge 1
Bridge 2
Chorus x2(start on 2nd half)
Verse 3


Stellar Young music available for “pick what you pay (even nothing)” at 
stellaryoungmusic.bandcamp.com
Добавлено: 30.06.2013
Другие материалы по этой песне:
  • Аккорды и текст

Страница создана 30.06.2013
http://primanota.ru/misc-unsigned-bands/stellar-young-playing-with-guns-kyle-chords.htm
Привет, Гость.
Предлагаем пройти революционный курс по гитаре.
Подарок от PrimaNota.Ru, забирай!