PrimaNota.ru - самый крупный в мире бесплатный архив песенных текстов, аккордов, табулатур и нот


Misc Unsigned Bands - Stellar Young - We Own Nothing Erik - таба

Регистрация Запомнить меня
Войти через:  Facebook Google Twitter Vk Yandex Mail.ru

Misc Unsigned Bands - Stellar Young - We Own Nothing Erik - таба

Печатать
Просмотров: 66
Уроки эстрадного вокала в Санкт-Петербурге
(/) Slide Up  (\) Slide Down  (h) Hammer On  (p) Pull Off  (b) Bend (r) Release (v) Vibrato

Artist: Stellar Young
Song: We Own Nothing
Album: Everything at Once
Guitar Part: Erik Flora
Tuning: Standard
Note: Capo on 2, Listen to track for strumming

Intro: 2x         | 2x             | 2x             | 2x
E|--4--4--4--4----|--2--2--2--2----|--4--4--4--0----|--2--2--2--0----|--|
B|--5--5--5--4----|--4--4--4--2----|--5--5--5--5----|--0--0--0--0----|--|
G|--4--4--4--4----|--4--4--4--4----|--6--6--6--6----|--4--4--4--4----|--|
D|--6--6--6--6----|--2--2--2--2----|--7--7--7--7----|--4--4--4--4----|--|
A|--4--4--4--4----|--2--2--2--2----|--0--0--0--0----|--x--x--x--x----|--|
E|----------------|----------------|----------------|--4--4--4--4----|--|
pm**********************************************************************

Verse 1: 2x       | 2x             | 2x             | 2x
E|--4--4--4--4----|--2--2--2--2----|--4--4--4--0----|--2--2--2--0----|--|
B|--5--5--5--4----|--4--4--4--2----|--5--5--5--5----|--0--0--0--0----|--|
G|--4--4--4--4----|--4--4--4--4----|--6--6--6--6----|--4--4--4--4----|--|
D|--6--6--6--6----|--2--2--2--2----|--7--7--7--7----|--4--4--4--4----|--|
A|--4--4--4--4----|--2--2--2--2----|--0--0--0--0----|--x--x--x--x----|--|
E|----------------|----------------|----------------|--4--4--4--4----|--|
pm**********************************************************************

Verse 1: 2x       | 2x             | 2x             | 2x
E|--4--4--4--4----|--2--2--2--2----|--4--4--4--0----|--2--2--2--0----|--|
B|--5--5--5--4----|--4--4--4--2----|--5--5--5--5----|--0--0--0--0----|--|
G|--4--4--4--4----|--4--4--4--4----|--6--6--6--6----|--4--4--4--4----|--|
D|--6--6--6--6----|--2--2--2--2----|--7--7--7--7----|--4--4--4--4----|--|
A|--4--4--4--4----|--2--2--2--2----|--0--0--0--0----|--x--x--x--x----|--|
E|----------------|----------------|----------------|--4--4--4--4----|--|


Prechorus: 2x     | 2x             | 2x             | 2x
E|--4--4--4--4----|--2--2--2--2----|--4--4--4--0----|--2--2--2--0----|--|
B|--5--5--5--4----|--4--4--4--2----|--5--5--5--5----|--0--0--0--0----|--|
G|--4--4--4--4----|--4--4--4--4----|--6--6--6--6----|--4--4--4--4----|--|
D|--6--6--6--6----|--2--2--2--2----|--7--7--7--7----|--4--4--4--4----|--|
A|--4--4--4--4----|--2--2--2--2----|--0--0--0--0----|--x--x--x--x----|--|
E|----------------|----------------|----------------|--4--4--4--4----|--|
Loose strumming with slight analog delay

Chorus: 2x
E|--0----------0------0------0----------0------0------|--|
B|--7----------0------0------7----------0------0------|--|
G|--8----------2------4------8----------4------2------|--|
D|--6----------2------4------6----------4------2------|--|
A|--7----------0------2------7----------2------0------|--|
E|--0----------x------x------0----------x------x------|--|


Interlude: 2x     | 2x             | 2x             | 2x
E|--4--4--4--4----|--2--2--2--2----|--4--4--4--0----|--2--2--2--0----|--|
B|--5--5--5--4----|--4--4--4--2----|--5--5--5--5----|--0--0--0--0----|--|
G|--4--4--4--4----|--4--4--4--4----|--6--6--6--6----|--4--4--4--4----|--|
D|--6--6--6--6----|--2--2--2--2----|--7--7--7--7----|--4--4--4--4----|--|
A|--4--4--4--4----|--2--2--2--2----|--0--0--0--0----|--x--x--x--x----|--|
E|----------------|----------------|----------------|--4--4--4--4----|--|


Verse 2: 2x       | 2x             | 2x             | 2x
E|--4--4--4--4----|--2--2--2--2----|--4--4--4--0----|--2--2--2--0----|--|
B|--5--5--5--4----|--4--4--4--2----|--5--5--5--5----|--0--0--0--0----|--|
G|--4--4--4--4----|--4--4--4--4----|--6--6--6--6----|--4--4--4--4----|--|
D|--6--6--6--6----|--2--2--2--2----|--7--7--7--7----|--4--4--4--4----|--|
A|--4--4--4--4----|--2--2--2--2----|--0--0--0--0----|--x--x--x--x----|--|
E|----------------|----------------|----------------|--4--4--4--4----|--|


Prechorus: 2x     | 2x             | 2x             | 2x
E|--4--4--4--4----|--2--2--2--2----|--4--4--4--0----|--2--2--2--0----|--|
B|--5--5--5--4----|--4--4--4--2----|--5--5--5--5----|--0--0--0--0----|--|
G|--4--4--4--4----|--4--4--4--4----|--6--6--6--6----|--4--4--4--4----|--|
D|--6--6--6--6----|--2--2--2--2----|--7--7--7--7----|--4--4--4--4----|--|
A|--4--4--4--4----|--2--2--2--2----|--0--0--0--0----|--x--x--x--x----|--|
E|----------------|----------------|----------------|--4--4--4--4----|--|
Loose strumming with slight analog delay

Chorus: 2x
E|--0----------0------0------0----------0------0------|--|
B|--7----------0------0------7----------0------0------|--|
G|--8----------2------4------8----------4------2------|--|
D|--6----------2------4------6----------4------2------|--|
A|--7----------0------2------7----------2------0------|--|
E|--0----------x------x------0----------x------x------|--|


Bridge: Tremolo picking with digital delay (tabbed out in quarter notes)
E|--9--9--9--9--9--9--7--7--4--4--4--4--4--4--4--4-----------------------------------------|
B|--------------------------------------------------5--5--5--5--5--5--7--7--5--5--5--5-----|
G|-----------------------------------------------------------------------------------------|
D|-----------------------------------------------------------------------------------------|
A|-----------------------------------------------------------------------------------------|
E|-----------------------------------------------------------------------------------------|


Bridge: Tremolo picking with digital delay (tabbed out in quarter notes)
E|--------------|--9--9--9--9--9--9--11--11--12--12--12--12--12--12--14--14--16--16--16--16--|
B|--5--5--4--4--|----------------------------------------------------------------------------|
G|--------------|----------------------------------------------------------------------------|
D|--------------|----------------------------------------------------------------------------|
A|--------------|----------------------------------------------------------------------------|
E|--------------|----------------------------------------------------------------------------|


Bridge: Tremolo picking with digital delay (tabbed out in quarter notes)
E|--16--16--14--14--16--16--16--16b17b18b19b20--|--|
B|----------------------------------------------|--|
G|----------------------------------------------|--|
D|----------------------------------------------|--|
A|----------------------------------------------|--|
E|----------------------------------------------|--|


Chorus: 2x
E|--0----------0------0------0----------0------0------|--|
B|--0----------0------0------0----------0------0------|--|
G|--1----------2------4------1----------4------2------|--|
D|--2----------2------4------2----------4------2------|--|
A|--2----------0------2------2----------2------0------|--|
E|--0----------x------x------0----------x------x------|--|


Outro: Digital delay on and tremolo picking high notes
E|--0------------------12--12--12--12-----12--12--12--12-------------|
B|--0------------------12--12--12--12-----12--12--12--12-------------|
G|--1----------------------------------------------------------------|
D|--2----------------------------------------------------------------|
A|--2----------------------------------------------------------------|
E|--0----------------------------------0------------------0----------|

Stellar Young music available for “pick what you pay (even nothing)” at 
stellaryoungmusic.bandcamp.com
Добавлено: 26.09.2013
Другие материалы по этой песне:
  • Аккорды и текст

Страница создана 26.09.2013
http://primanota.ru/misc-unsigned-bands/stellar-young-we-own-nothing-erik-chords.htm
Привет, Гость.
Предлагаем пройти революционный курс по гитаре.
Подарок от PrimaNota.Ru, забирай!