PrimaNota.ru - самый крупный в мире бесплатный архив песенных текстов, аккордов, табулатур и нот


Misc Unsigned Bands - Stellar Young - Animals Kyle - таба

Регистрация Запомнить меня
Войти через:  Facebook Google Twitter Vk Yandex Mail.ru

Misc Unsigned Bands - Stellar Young - Animals Kyle - таба

Печатать
Просмотров: 57
(/) Slide Up  (\) Slide Down  (h) Hammer On  (p) Pull Off  (b) Bend (r) Release (v) Vibrato

Artist: Stellar Young
Song: Animals
Album: Everything at Once
Guitar Part: Kyle Hatch
Tuning: Standard
Note: Listen to song for strumming

Verse
E|------------------------|
B|------------------------|
G|--4--2--4--9--7--9--11--|
D|--0--0--0--0--0--0--0---|
A|------------------------|
E|--3--2--3--8--7--8--10--|


Chorus
E|------------------------|
B|--3--2--3--8--7--8--10--|
G|--4--2--4--9--7--9--11--|
D|--0--0--0--0--0--0--0---|
A|------------------------|
E|--3--2--3--8--7--8--10--|


Bridge intro
E|--------------------------------------------------------------------------------------|
B|--12--10--12--12--10--12--12--10--12--12--10--12--12--10--12--12--10--10-\-7--7-\-3---|
G|--12--11--12--12--11--12--12--11--12--12--11--12--12--11--12--12---11--11-\-7--7-\-4--|
D|--------------------------------------------------------------------------------------|
A|--------------------------------------------------------------------------------------|
E|--------------------------------------------------------------------------------------|


E|-----------------------------------------------------------|
B|--3-h-5-p-3------0----------3-h-5-p-3------0---------------|
G|--4-h-5-p-4-p-0--0-h-2-/-4--4-h-5-p-4-p-0--0-h-2-/-4-------|
D|-------------------------------------------------------5---|
A|-----------------------------------------------------------|
E|-----------------------------------------------------------|



Bridge Swells
E|------------------------|
B|--12--15--7--8--12------|
G|--12--16--7--9--12------|
D|------------------------|
A|------------------------|
E|------------------------|


Duel Solo (Lower Part)

E|------------------------------------------------------------------------------------------|
B|-----------------8----------------7----------------------------8-------------7--12--------|
G|-----------7-----------------7--------------7--9----------7--------------7-----------/-9--|
D|--10--9--------------10--9-----------10--9---------10--9----------10--9-------------------|
A|------------------------------------------------------------------------------------------|
E|------------------------------------------------------------------------------------------|



E|---------------------------------------------------------------------------------------|
B|-------12--12-------12--12------13--13-15-b-17-b-15--12------12-b-13-b-12------12------|
G|---------------------------------------------------------------------------------------|
D|--/12----------/12----------/14--------------------------------------------12------12--|
A|---------------------------------------------------------------------------------------|
E|---------------------------------------------------------------------------------------|


E|-------------------------------------------------------------------------------|
B|-----12-b-13-b-12------12--------12-b-13-b-12----------------------------------|
G|-----------------------------------------------12------------------12--14--12--|
D|-12----------------12-----12-----------------------12--14--14--12--------------|
A|-------------------------------------------------------------------------------|
E|-------------------------------------------------------------------------------|



E|----------------14----------------------------------------------------------15-17-b-19-b-17--15---|
B|12--13--12--12----15--15------15--17--17-b-19-b-17-----17-b-19-b-17-----17---------------------17-|
G|--------------------------16-----------------------16----------------16---------------------------|
D|--------------------------------------------------------------------------------------------------|
A|--------------------------------------------------------------------------------------------------|
E|--------------------------------------------------------------------------------------------------|



E|-----15--17--17-b-19-17--15-----15--17-b-19-b-17--15------15--17--17-b-19-b-20-b-19--15--17--|
B|-/17-------------------------17-----------------------17-------------------------------------|
G|---------------------------------------------------------------------------------------------|
D|---------------------------------------------------------------------------------------------|
A|---------------------------------------------------------------------------------------------|
E|---------------------------------------------------------------------------------------------|


E|--15---17-b-19-b-20-b-19--15--17--15-------------------------------------------------------------|
B|--------------------------------------17--17-b-19-b-20-17--15--17--12--13--12-----12-------------|
G|------------------------------------------------------------------------------14------12--14--11-|
D|-------------------------------------------------------------------------------------------------|
A|-------------------------------------------------------------------------------------------------|
E|-------------------------------------------------------------------------------------------------|



E|------------------------------------------|
B|------------------------------------------|
G|--12-------12-----------------------------|
D|-------14-------12------------------------|
A|----------------------14--12-h-14---------|
E|------------------------------------------|



E|--14------------------------------12-----------------------------|
B|-----------14------12-----------------------13------12-----------|
G|--------------------------12---------------------------------12--|
D|--12--12------12------12------14-------14------14--------14------|
A|-----------------------------------------------------------------|
E|-----------------------------------------------------------------|


Stellar Young music available for pick what you pay (even nothing) at 
stellaryoungmusic.bandcamp.com
Добавлено: 16.07.2013
Другие материалы по этой песне:
  • Аккорды и текст

Страница создана 16.07.2013
http://primanota.ru/misc-unsigned-bands/stellar-young-animals-kyle-chords.htm
Привет, Гость.
Предлагаем пройти революционный курс по гитаре.
Подарок от PrimaNota.Ru, забирай!