PrimaNota.ru - самый крупный в мире бесплатный архив песенных текстов, аккордов, табулатур и нот


Misc Unsigned Bands - Stellar Young - Playing With Guns - таба

Регистрация Запомнить меня
Войти через:  Facebook Google Twitter Vk Yandex Mail.ru

Misc Unsigned Bands - Stellar Young - Playing With Guns - таба

Печатать
Просмотров: 46
(/) Slide Up  (\) Slide Down  (h) Hammer On  (p) Pull Off  (b) Bend (r) Release (v) Vibrato

Artist: Stellar Young
Song: Playing with Guns
Album: Everything at Once
Guitar Part: Erik Flora
Tuning: Standard
Note: Listen to song for strumming

Verse 1: 4x
E|--3----------------|
B|--3------------11--|
G|--3------10----10--|
D|--3------8-----8---|
A|--5------8-----10--|
E|--3------10--------|


Chorus: 2x
E|----------------------3--|
B|--11-----6-----11-----3--|
G|--8------3-----8------3--|
D|--8------3-----8------3--|
A|--10-----5-----10-----5--|
E|--11-----6-----11-----3--|


Verse 2: 5x                                    | Alternate (Play on 4th time through)
E|---------------------------------------------|------------------------------------------------|
B|--18p15--------------15----------15--15------|------------------------------------15--15------|
G|---------17--15--17------17--15--15--15--15--|----------15--17--17b19r17--15------15--15--15--|
D|-----------------------------------------17--|--15--17------------------------17----------17--|
A|---------------------------------------------|------------------------------------------------|
E|---------------------------------------------|------------------------------------------------|


                                | Play 3x
E|------------------------------|--3----------------|
B|--18--15----------15--15------|--3------------11--|
G|--17--17--17--15--15--15--15--|--3------10----10--|
D|----------17--15----------17--|--3------8-----8---|
A|------------------------------|--5------8-----10--|
E|------------------------------|--3------10--------|


Chorus: 2x
E|----------------------3--|
B|--11-----6-----11-----3--|
G|--8------3-----8------3--|
D|--8------3-----8------3--|
A|--10-----5-----10-----5--|
E|--11-----6-----11-----3--|


Bridge:4x (including Bridge CONT.)
E|----------------------------------|----------------------------------|-----|
B|----------------------------------|----------------------------------|-----|
G|--------------------------10------|--------------------------12------|-----|
D|--10------10------10--------------|--12------12------12--------------|-----|
A|------13------13------13------13--|------13------13------13------13--|-----|
E|----------------------------------|----------------------------------|-----|


Bridge CONT.                    | Play this ending 3x          | Play this ending last time
E|------------------------------|------------------------------|--------------------------|
B|------------------------------|------------------------------|--------------------------|
G|------------------------------|------------------------------|--------------------7-----|
D|------8------8------8--10--8--|------8------8------8--10--8--|-----8-----8-----8-----8--|
A|--10-----10-----10------------|--10-----10-----10------------|--8-----8-----8-----------|
E|------------------------------|------------------------------|--------------------------|



Bridge Part 2: 4x
E|--------------------------------------------------------------|
B|--------------------------------------------------------------|
G|--10--10--10--10--12--12--12--12--8---8---8---8---7--7--7--7--|
D|--10--10--10--10--12--12--12--12--8---8---8---8---8--8--8--8--|
A|--12--12--12--12--13--13--13--13--10--10--10--10--8--8--8--8--|
E|--------------------------------------------------------------|


Chorus: 2x
E|----------------------3--|
B|--11-----6-----11-----3--|
G|--8------3-----8------3--|
D|--8------3-----8------3--|
A|--10-----5-----10-----5--|
E|--11-----6-----11-----3--|


Outro:
E|---------------------------------------------|
B|--18p15--------------15----------15--15------|
G|---------17--15--17------17--15--15--15--15--|
D|-----------------------------------------17--|
A|---------------------------------------------|
E|---------------------------------------------|

Stellar Young music available for pick what you pay (even nothing) at 
stellaryoungmusic.bandcamp.com
Добавлено: 30.07.2013
Другие материалы по этой песне:
  • Аккорды и текст

Страница создана 30.07.2013
http://primanota.ru/misc-unsigned-bands/stellar-young-playing-with-guns-chords.htm
Привет, Гость.
Предлагаем пройти революционный курс по гитаре.
Подарок от PrimaNota.Ru, забирай!