PrimaNota.ru - самый крупный в мире бесплатный архив песенных текстов, аккордов, табулатур и нот


Misc Unsigned Bands - State Of Error - Make Believe - таба

Регистрация Запомнить меня
Войти через:  Facebook Google Twitter Vk Yandex Mail.ru

Misc Unsigned Bands - State Of Error - Make Believe - таба

Печатать
Просмотров: 51
Search 'State Of Error - Make Believe'
in youtube/Google to listen to it for free!!!!,
Buy make believe and other tracks on iTunes & Tesco Digital
facebook.com/stateoferror
youtube.com/stateoferror

/       = Slide up
\       = Slide down
/(11)   = Slide to fret in brackets but don't strum
x       = Mute Strings
p       = Pull Off
H       = Hammer On
T       = Tap With Strumming Hand
^       = Pitch Shift Up


Intro
(Synth Keys For 1 Bar, Come in on 2nd Bar)
(Guitar 1)
-Clean With Delay-


E|----------------------------------------------------------------------------------|
B|----------------------------------------------------------------------------------|
G|------7---------7---------7--------6--------4---------4--------4--------6---------|
D|----------------------------------------------------------------------------------|
A|----------------------------------------------------------------------------------|
E|--7---------7--------7---------5--------3--------3---------3--------5-------------|

                                                                               x2
-------------------------------------------------------------------------------|----|
-------------------------------------------------------------------------------|----|
-------7---------7----------7---------6----------4----------4---------3--------|----|
-------------------------------------------------------------------------------|----|
-------------------------------------------------------------------------------|----|
--7----------7---------7----------5---------3----------3----------3------------|----|

(Guitar 2)
Begins 3rd Bar, Play Until Pre-Chorus
-Low Distortion, All sustained Notes, No Picking, Use Feedback-


E|---------------------------------------------------------------------------------|--|
B|---------------------------------------------------------------------------------|--|
G|--7------------6-------4------------6-------7------------6-------4-------3-------|--|
D|---------------------------------------------------------------------------------|--|
A|---------------------------------------------------------------------------------|--|
E|---------------------------------------------------------------------------------|--|


Verses
(Guitar 2)
Keep Sustaining Notes (Above)
(Guitar 1)
Play Intro For 1st Half Of Singing, Then Play...


E|-----------------------------------------------------------------------------------|
B|-----------------------------------------------------------------------------------|
G|-------7-----------7----------7-/(9)----9-/(11)----11-\(9)----9--------------------|
D|-----------------------------------------------------------------------------------|
A|-----------------------------------------------------------------------------------|
E|--7-----------7----------7----------------------------------------------3----------|


-----------------------------------------------------------------------------------------|
-----------------------------------------------------------------------------------------|
--4----------4-----------11-/(12)----12-\(11)----11-\(9)----9-----------------7----------|
-----------------------------------------------------------------------------------------|
-----------------------------------------------------------------------------------------|
-------3----------3----------------------------------------------------7-----------7-----|


-----------------------------------------------------------------------------------|
-----------------------------------------------------------------------------------|
---7----------7-/(9)----9-/(11)----11-\(9)----9-/-12--11--11--15--15---------------|
-----------------------------------------------------------------------------------|
-----------------------------------------------------------------------------------|
--------7--------------------------------------------------------------------------|


Pre-Chorus
(Both Guitars)
-Distortion-


E|------------------------------------------------x----x--x----x--x----|----|
B|------------------------------------------------x----x--x----x--x----|----|
G|------------------------------------------------x----x--x----x--x----|----|
D|--5--------7----7--------5--------4----4--------x----x--x----x--x----|----|
A|--5--------5----7--------5--------5----4--------x----x--x----x--x----|----|
E|--3--------5----5--------3--------2----2--------x----x--x----x--x----|----|


Chorus
(Guitar 1)


E|---------------------------------------------------------------------------|
B|---------------------------------------------------------------------------|
G|--4--4--4--4--4--4--4--4--6--6--6--6--7--7--7--7--12-12-12-12-12-12-12-12--|
D|---------------------------------------------------------------------------|
A|--2--2--2--2--2--2--2--2--4--4--4--4--5--5--5--5--10-10-10-10-10-10-10-10--|
E|---------------------------------------------------------------------------|


---------------------------------------------------------------------------|
---------------------------------------------------------------------------|
--11-11-11-11--9--9--9--9--4--4--4--4--4--4--4--4--6--6--6--6--7--7--7--7--|
---------------------------------------------------------------------------|
--9--9--9--9---7--7--7--7--2--2--2--2--2--2--2--2--4--4--4--4--5--5--5--5--|
---------------------------------------------------------------------------|

                                                    x2
----------------------------------------------------|----|
----------------------------------------------------|----|
----------------------------------------------------|----|
--5--5--5--5--5--5--5--5--4--4--4--4--4--4--4--4----|----|
--5--5--5--5--5--5--5--5--5--5--5--5--4--4--4--4----|----|
--3--3--3--3--3--3--3--3--2--2--2--2--2--2--2--2----|----|


Chorus
(Guitar 2)


E|--------------------------------------------------------------------------------------|
B|--------------------------------------------------------------------------------------|
G|--4--4--4--4--4--4--4--4--6--6--6--6--7--7--7--7--7--7--7--7--7--7--7--7--7--7--7--7--|
D|--------------------------------------------------------------------------------------|
A|--2--2--2--2--2--2--2--2--4--4--4--4--5--5--5--5--5--5--5--5--5--5--5--5--5--5--5--5--|
E|--------------------------------------------------------------------------------------|


--------------------------------------------------------------|
--------------------------------------------------------------|
--6--6--6--6--4--4--4--4--4--4--4--4--6--6--6--6--7--7--7--7--|
--------------------------------------------------------------|
--4--4--4--4--2--2--2--2--2--2--2--2--4--4--4--4--5--5--5--5--|
--------------------------------------------------------------|

                                                    x2
----------------------------------------------------|----|
----------------------------------------------------|----|
----------------------------------------------------|----|
--5--5--5--5--5--5--5--5--4--4--4--4--4--4--4--4----|----|
--5--5--5--5--5--5--5--5--5--5--5--5--4--4--4--4----|----|
--3--3--3--3--3--3--3--3--2--2--2--2--2--2--2--2----|----|


Bridge
(Both guitars hold note and then slide down with delay)
(Guitar 1 Plays 'Pick Scratch')


E|------------------------------------------------------------------------------------|--|
B|------------------------------------------------------------------------------------|--|
G|------------------------------------------------------------------------------------|--|
D|--9----------------\----------------------------------------------------------------|--|
A|--9----Let Ring----\----------------------------------------------------------------|--|
E|--7----------------\-----xxxxx--Pick Scratch Towards Bridge With Delay--xxxx--------|--|


(Verse 2, Pre-Chorus, Chorus 2)


Solo
(Guitar 1)
-Pitch Shift 1 Octave- (On Every Note That Has ^ Symbol Above)
(Repeats 4 Time, BUT Plays Different Riff At The End Of Each Time, Riffs Below)

     T        T         T         T         T         T
E|--------------------------------------------------------------|
B|---^---------------------------------------^------------------|
G|--11p7p4h7--11p7p4h7--11p7p4h7--11p7p4h7--12p7p4h7--12p7p4h7--|
D|--------------------------------------------------------------|
A|--------------------------------------------------------------|
E|--------------------------------------------------------------|

   T         T         T           T           T          T             x4
------------------------------------------------------------------------|--|
---^-------------------^------------------------------------------------|--|
--14p7p4h7--14p7p4h7--14p11p7h11--14p11p7h11--14p11p7h11--14p11p7h11----|--|
------------------------------------------------------------------------|--|
------------------------------------------------------------------------|--|
------------------------------------------------------------------------|--|

After 1st and 3rd Time Of Playing Above, Play This...

   T           T         T
----------------------------------------|----|
---^----------------------^-------------|----|
--12p11p7h11--12p11p7h9--11p9p7h9--11---|----|
----------------------------------------|----|
----------------------------------------|----|
----------------------------------------|----|

After 2nd Time, Play This...

   T           T           T          T
----------------------------------------------------|----|
---^-----------------------^------------------------|----|
--16p11p7h11--16p11p7h11--14p11p7h11--14p11p7h11----|----|
----------------------------------------------------|----|
----------------------------------------------------|----|
----------------------------------------------------|----|

After 4th Time, Play This...

   T           T           T
--------------------------------------------|----|
---^-----------------------^----------------|----|
--16p11p7h11--16p11p7h11--18p11p7h11--18----|----|
--------------------------------------------|----|
--------------------------------------------|----|
--------------------------------------------|----|


(Guitar 2)


E|--------------------------------------------------------------------------|
B|--------------------------------------------------------------------------|
G|--------------------------------------------------------------------------|
D|--5--5--5--5--5--5--5--5--5--5--5--5--5--5--5--5--7--7--7--7--7--7--7--7--|
A|--5--5--5--5--5--5--5--5--5--5--5--5--5--5--5--5--5--5--5--5--5--5--5--5--|
E|--3--3--3--3--3--3--3--3--3--3--3--3--3--3--3--3--5--5--5--5--5--5--5--5--|


--------------------------------------------------------------------------|
--------------------------------------------------------------------------|
--------------------------------------------------------------------------|
--7--7--7--7--7--7--7--7--5--5--5--5--5--5--5--5--5--5--5--5--5--5--5--5--|
--7--7--7--7--7--7--7--7--5--5--5--5--5--5--5--5--5--5--5--5--5--5--5--5--|
--5--5--5--5--5--5--5--5--3--3--3--3--3--3--3--3--3--3--3--3--3--3--3--3--|

                                                    x2
----------------------------------------------------|----|
----------------------------------------------------|----|
----------------------------------------------------|----|
--4--4--4--4--4--4--4--4--4--4--4--4--4--4--4--4----|----|
--5--5--5--5--5--5--5--5--4--4--4--4--4--4--4--4----|----|
--2--2--2--2--2--2--2--2--2--2--2--2--2--2--2--2----|----|


(Chorus 3)


Ending
(Both Guitars)


E|------------------------------------------------------------------------------|
B|------------------------------------------------------------------------------|
G|--4---------------------------------------------------------------4-----------|
D|--4--(x16)--------5---------------4---------------4---------------4--(x16)----|
A|--2---------------5--(x8)---------5--(x4)---------4--(x4)---------2-----------|
E|------------------3---------------2---------------2---------------------------|


-----------------------------------------------------------------------------|----|
-----------------------------------------------------------------------------|----|
----------------------------------------------------------4------------------|----|
--5--5---x---5--5---x---4--4---x---4--4---x---5--x--5--x--4----(Let Ring)----|----|
--5--5---x---5--5---x---5--5---x---5--5---x---5--x--5--x--2------------------|----|
--3--3---x---3--3---x---2--2---x---2--2---x---2--x--2--x---------------------|----|


TABS By,
TomJayZen...

twitter.com/tomjayzen
facebook.com/tompartyka
Добавлено: 10.08.2013
Другие материалы по этой песне:
  • Аккорды и текст

Страница создана 10.08.2013
http://primanota.ru/misc-unsigned-bands/state-of-error-make-believe-chords.htm
Привет, Гость.
Предлагаем пройти революционный курс по гитаре.
Подарок от PrimaNota.Ru, забирай!