PrimaNota.ru - самый крупный в мире бесплатный архив песенных текстов, аккордов, табулатур и нот


Misc Unsigned Bands - Steel Phantoms - Curtain Call - таба

Регистрация Запомнить меня
Войти через:  Facebook Google Twitter Vk Yandex Mail.ru

Misc Unsigned Bands - Steel Phantoms - Curtain Call - таба

Печатать
Просмотров: 50
www.steelphantoms.com
Follow us at https://www.facebook.com/SteelPhantoms

"Curtain Call" by Steel Phantoms
Music by Aaron Harris/Jesse Newkirk
Lyrics by Aaron Harris
Guitar performed and transcribed by Jesse B. Newkirk IV


INTRO/CHORUS (with light slapback delay)
Fast chord strums. Except for the initial attacks on Bb and Eb, every stroke 
should be a down stroke.

  : Bb ... Gm ... Eb . Dm . Gm ...:
E-:--6------3-----6----5----10----:
B-:--6------3-----8----6----11----:
G-:--7------3-----x----x----12----:
D-:--8------5-----8----7----12----:
A-:--8------5-----6----5----10----:
E-:--6------3---------------------:



VERSE (using POG2, reverb, and overdrive for organ tone)


  :  Bb      Dm    Cm                   Gm/D  F        :
E-:--6-------13-\--11----------11-------6--------------:
B-:--6-------15-\--13----------13-------8-----10-------:
G-:--7-------14-\--12----------12-------7-----10-------:
D-:--8-------12-\--10--12--10-----------x-----10-------:
A-:--8----------------------------------5-----8--------:
E-:--6-----------------------------3-/------------10-\-:

Add some arpeggiation in the second verse.


After first VERSE:

   Bb (let ring)      Tremolo pick high notes
E--6-------------------------------------|
B--6--------------------------15~~~~~~~~-|
G--7---------------/-15~~~~~~~15~~~~~~~~-|
D--8-------------------------------------|
A--8-------------------------------------|
E--6-------------------------------------|


BRIDGE (with slower delay)
Let low bass notes ring while playing bends and high notes.
Fingering is marked along the bottom. i = index. m = middle. r = ring. p = pinky

   Bb                Eb
E--------------------------------------|
B----------------6----------------8----|
G------7b(8)r(7)--------7b(8)r(7)------|
D--------------------------------------|
A--------------------6-----------------|
E---6----------------------------------|
    i   r        m   i  r         p

    F
E----------------6-------------------|
B------------------------------------|
G-----7b(8)r(7)----------------------|
D---------------------5--------------|
A---8--------------------8-----5-----|
E---------------------------------5--|
    r  m         i    i  p     i  i

Third time play:

   Bb                Eb
E--------------------------------------|
B----------------6----------------8----|
G------7b(8)r(7)--------7b(8)r(7)------|
D--------------------------------------|
A--------------------6-----------------|
E---6----------------------------------|
    i   r        m   i  r         p

    F
E----------------6-------------------|
B------------------------------------|
G-----7b(8)r(7)----------------------|
D---------------------5-----------7--|
A---8--------------------8-----5-----|
E------------------------------------|
    r  m         i    i  p     i  p

Fourth time play:

   Bb                Eb
E--------------------------------------|
B--------------------------------------|
G------7b(8)r(7)-5-------7b(8)r(7)-----|
D----------------------------------8---|
A--------------------6-----------------|
E---6----------------------------------|
    m   r        i   m  r         p


    F
E----------------6-------------------|
B------------------------------------|
G-----7b(8)r(7)----------------------|
D---7------------------5----------7--|
A---8--------------------8-----5-----|
E------------------------------------|
    p/r  m       i    i  p     i  p


Fifth time:

   Bb                Eb
E--------------------------------------|
B---------------------------------8----|
G------7b(8)r(7)--------7b(8)r(7)------|
D----------------5---------------------|
A--------------------6-----------------|
E---6----------------------------------|
    m   r        i   m  r         p

    F
E----------------6--------------------|--6-|
B-------------------------------------|--6-|
G-----7b(8)r(7)-----------------------|--7-|
D---------------------5-----------7---|--8-|
A---8--------------------8-----5------|--8-|
E---------------------------------5---|--6-|
    r  m         i    i  p     i  i/p


Then play the chorus a bunch!
Добавлено: 10.09.2013
Другие материалы по этой песне:
  • Аккорды и текст

Страница создана 10.09.2013
http://primanota.ru/misc-unsigned-bands/steel-phantoms-curtain-call-chords.htm
Привет, Гость.
Предлагаем пройти революционный курс по гитаре.
Подарок от PrimaNota.Ru, забирай!