PrimaNota.ru - самый крупный в мире бесплатный архив песенных текстов, аккордов, табулатур и нот


Misc Unsigned Bands - State Of Error - Ballad Of Halloween - таба

Регистрация Запомнить меня
Войти через:  Facebook Google Twitter Vk Yandex Mail.ru

Misc Unsigned Bands - State Of Error - Ballad Of Halloween - таба

Печатать
Просмотров: 37
Search 'state of error - Ballad Of Halloween'
in youtube/Google to listen to Antisceen free,
or Buy Ballad Of Halloween or other tracks from the old E.P.

P       = Pull off
/       = Slide up
\       = Slide down
+       = Tap
R       = Pull off with Tapping Hand
PM      = Palm Mute
|w/bar| = Whammy Bar
B(14)   = Bend note untill it sounds like the number in the bracket
/(12)   = Slide to note in bracket but dont strum note

Intro

  Guitar 1
                                               x4
E|---------------------------------------------|----|
B|---------------------------------------------|----|
G|---------------------------------------------|----|
D|---------------------------------------------|----|
A|--3--------3--------2--------2----2-3-5-2----|----|
D|-----5--5-----5--5-----5--5------------------|----|
      |_PM_|   |____|   |____|

  Guitar 2
                                              x2
  --------------------------------------------|----|
  --------------------------------------------|----|
  --------------------------------------------|----|
  --------------------------------------------|----|
  --6----------6----------5--------5----------|----|
  -----10--10-----10--10-----9--9-----9--9----|----|
      |______|   |______|   |____|   |____|

Verses
                                                                       x2
  ---------------------------------------------------------------------|----|
  ---------------------------------------------------------------------|----|
  ---------------------------------------------------------------------|----|
  ---------------------------------------------------------------------|----|
  --3---3-3-3---5-3-2---2-2-2-----2---3---3-3-3---5-3-2---2-2-2---0-2--|----|
  ------------------------------5--------------------------------------|----|
       |_PM__|         |_____|           |_____|         |_____|

Pre-Chorus

  Guitar 1
                                          x3
  ----------------------------------------|--|
  ----------------------------------------|--|
  ----------------------------------------|--|
  ----------------------------------------|--|
  --3--------3--------2--------2----------|--|
  -----5--5-----5--5-----5--5-----5--5----|--|
      |_PM_|   |____|   |____|   |____|

  ------------------------------------------------|
  ------------------------------------------------|
  ------------------------------------------------|
  --------------------555555555555555555555555----|
  --3--------3--------555555555555555555555555----|
  -----5--5-----5--5--555555555555555555555555----|
      |____|   |______________PM______________|

  Guitar 2

  ----------------------------------------------------------------|
  ----------------------------------------------------------------|
  ----------------------------------------------------------------|
  ----------------------------------------------------------------|
  --6----------6----------5--------5--------6----------6----------|
  -----10--10-----10--10-----9--9-----9--9-----10--10-----10--10--|
      |______|   |______|   |____|   |____|   |______|   |______|

  ------------------------------|
  ------------------------------|
  ------------------------------|
  --555555555555555555555555----|
  --555555555555555555555555----|
  --555555555555555555555555----|
   |________________________|

Chorus
                                      x2 (Chorus 1)
                                      x4 (Chorus 2)
  ------------------------------------|----|
  ------------------------------------|----|
  ----2--2----------------------------|----|
  ----2--2----2--2----3--3----5--5----|----|
  ----0--0----2--2----3--3----5--5----|----|
  ------------2--2----3--3----5--5----|----|


Bridge
                                               x2 (Bridge 1)
                                               x4 (Bridge 2&3)
  ---------------------------------------------|----|
  ---------------------------------------------|----|
  ---------------------------------------------|----|
  ---------------------------------------------|----|
  --3--5--5--3--5--5--2--5--5--2----2-3-5-2----|----|
  -----5--5-----5--5-----5--5------------------|----|


Intro Guitar 1 Riff x2
Verse 2
Pre-Chorus
Chorus 2
Bridge 2

Solo

  Guitar 1 Plays Chorus riff
  Guitar 2 plays;

          |w-bar|       |w-bar|
  ----------------------------------------|
  --10------------9-----------------------|
  --12b(14)-------11b(13)-------14---14---|
  ----------------------------------------|
  ----------------------------------------|
  ----------------------------------------|


  -------------------------------------------------------------------------|
  -------------------------------------------------------------------------|
  --14p12\(10)-12p10/(12)-14p12\(10)-12p10---------------------------------|
  -----------------------------------------12---------------14-14-12-14-12-|
  ------------------------------------------------/-12--15-----------------|
  -------------------------------------------------------------------------|

                                 +        +        +        +
  -------------------------------------------------------------------|
  -------------------------------13r12p10-13r12p10-13r12p10-13r12p10-|
  -------------------------------------------------------------------|
  -10-12-14-12-14-15-14-15-17----------------------------------------|
  -------------------------------------------------------------------|
  -------------------------------------------------------------------|

   +        +        +       +       +       +       +       +
  -------------------------------------------------------------------|
  -13r12p10-13r12p10-12r10p8-12r10p8-12r10p8-12r10p8-12r10p8-12r10p8-|
  -------------------------------------------------------------------|
  -------------------------------------------------------------------|
  -------------------------------------------------------------------|
  -------------------------------------------------------------------|

   +      +      +      +      +      +      +       +       +
  -------------------------------------------------------------------|
  -10r8p6-10r8p6-10r8p6-10r8p6-10r8p6-10r8p6-12r10p8-12r10p8-12r10p8-|
  -------------------------------------------------------------------|
  -------------------------------------------------------------------|
  -------------------------------------------------------------------|
  -------------------------------------------------------------------|

   +       +       +       +        +        +        +        +
  ----------------------------------------------------------------------|
  -12r10p8-12r10p8-12r10p8-13r12p10-13r12p10-13r12p10-13r12p10-13r12p10-|
  ----------------------------------------------------------------------|
  ----------------------------------------------------------------------|
  ----------------------------------------------------------------------|
  ----------------------------------------------------------------------|

   +        +       +       +       +       +       +       +      +
  ------------------------------------------------------------------------|
  -13r12p10-12r10p8-12r10p8-12r10p8-12r10p8-12r10p8-12r10p8-10r8p6-10r8p6-|
  ------------------------------------------------------------------------|
  ------------------------------------------------------------------------|
  ------------------------------------------------------------------------|
  ------------------------------------------------------------------------|

   +      +      +      +      +       +       +       +       +
  ---------------------------------------------------------------------|
  -10r8p6-10r8p6-10r8p6-10r8p6-12r10p8-12r10p8-12r10p8-12r10p8-12r10p8-|
  ---------------------------------------------------------------------|
  ---------------------------------------------------------------------|
  ---------------------------------------------------------------------|
  ---------------------------------------------------------------------|

   +       +       +
  ---------------------------------------------------------------------------|
  -12r10p8-12r10p8-12r10p8--8-------|----------------------------------------|
  --------------------------10b(12)-{Hold, Catch Feedback, Bring Down Slow}--|
  ---------------------------------------------------------------------------|
  ---------------------------------------------------------------------------|
  ---------------------------------------------------------------------------|


Pre-Chorus 3

  Guitar 1
                                             x11
  -------------------------------------------|--------------------|
  -------------------------------------------|--------------------|
  -------------------------------------------|--------------------|
  -------------------------------------------|--------------------|
  --3--------3--------2--------2----2-3-5-2--|--3--------3--------|
  -----5--5-----5--5-----5--5----------------|-----5--5-----5--5--|
      |_PM_|   |____|   |____|                    |____|   |____|

  ------------------------------|
  ------------------------------|
  ------------------------------|
  --555555555555555555555555----|
  --555555555555555555555555----|
  --555555555555555555555555----|
   |________________________|

  Guitar 2
                                            x7
  ------------------------------------------|------------------------|
  ------------------------------------------|------------------------|
  ------------------------------------------|------------------------|
  ------------------------------------------|------------------------|
  --6----------6----------5--------5--------|--6----------6----------|
  -----10--10-----10--10-----9--9-----9--9--|-----10--10-----10--10--|
      |______|   |______|   |____|   |____|      |______|   |______|

  ------------------------------|
  ------------------------------|
  ------------------------------|
  --555555555555555555555555----|
  --555555555555555555555555----|
  --555555555555555555555555----|
   |________________________|

Chorus 3

  Guitar 1
                                      x4
  ------------------------------------|----|
  ------------------------------------|----|
  ----2--2----------------------------|----|
  ----2--2----2--2----3--3----5--5----|----|
  ----0--0----2--2----3--3----5--5----|----|
  ------------2--2----3--3----5--5----|----|

  Guitar 2

  ------------------------------------------------------------------------|
  ------------------------------------------------------------------------|
  --14-14-14-14-14-/-17-17-17-17-17---16-16-16-16-16-/-19-19-19-19-19--\--|
  ------------------------------------------------------------------------|
  --12-12-12-12-12-/-15-15-15-15-15---14-14-14-14-14-/-17-17-17-17-17--\--|
  ------------------------------------------------------------------------|

                                                                         x2
  -----------------------------------------------------------------------|--|
  -----------------------------------------------------------------------|--|
  --10-10-10-10-10-/-17-17-17-17-17---16-16-16-16-16-\-12-12-12-12-12----|--|
  -----------------------------------------------------------------------|--|
  --8--8--8--8--8--/-15-15-15-15-15---14-14-14-14-14-\-10-10-10-10-10----|--|
  -----------------------------------------------------------------------|--|


Bridge 3
(TABS Above)
Добавлено: 03.10.2013
Другие материалы по этой песне:
  • Аккорды и текст

Страница создана 03.10.2013
http://primanota.ru/misc-unsigned-bands/state-of-error-ballad-of-halloween-chords.htm
Привет, Гость.
Предлагаем пройти революционный курс по гитаре.
Подарок от PrimaNota.Ru, забирай!