PrimaNota.ru - самый крупный в мире бесплатный архив песенных текстов, аккордов, табулатур и нот


Misc Unsigned Bands - State Of Error - Love Light - таба

Регистрация Запомнить меня
Войти через:  Facebook Google Twitter Vk Yandex Mail.ru

Misc Unsigned Bands - State Of Error - Love Light - таба

Печатать
Просмотров: 37
Search 'state of error - mirror theory'
in Google to listen to Love Light free,
or Buy Love Light or other tracks from the old E.P.

H     = Hammer on
/     = Slide up
\     = Slide down
~     = Vibrato
PM    = Palm Mute
B     = Bend
B(13) = Bend note untill it sounds like the number in the bracket
/(8)  = Slide to fret in brackets but don't strum


Intro

E|-----------------------------------------------------------|
B|-----------------------------------------------------------|
G|----4---------4---------4---------4------------------------|
D|----4----2----4----4----4----2----4----4444444444444444----|
A|----2----2----2----4----2----2----2----4444444444444444----|
E|---------0---------2---------0---------2222222222222222----|
					|_______PM_______|

Bridge

  ----------------------------------------------------------------------|
  ----------------------------------------------------------------------|
  --4444444444444444--------------------4--/--6--6--/--8--8--/--11--11--|
  --4444444444444444--2222222222222222----------------------------------|
  --2222222222222222--2222222222222222--2--/--4--4--/--6--6--/--9---9---|
  --------------------0000000000000000----------------------------------|

				     x2
  -----------------------------------|----|
  -----------------------------------|----|
  ------------9--9--9--\--8--\--6----|----|
  --44444444-------------------------|----|
  --44444444--7--7--7--\--6--\--4----|----|
  --22222222-------------------------|----|


Verses
                                                                          x2
  -------------------------------------------------------------------------|
  -------------------------------------------------------------------------|
  -4444444444444444--------------------4444444444444444--------------------|
  -4444444444444444--2222222222222222--4444444444444444--4444444444444444--|
  -2222222222222222--2222222222222222--2222222222222222--4444444444444444--|
  -------------------0000000000000000--------------------2222222222222222--|
  |__________________________________PM____________________________________|

Chorus
(play this bar once)

  ---------------------------------------------------------------------|----|
  ---------------------------------------------------------------------|----|
  ---------------------------------4444--4444--4444--------------------|----|
  -6666--6666--66662222--2222--22224444--4444--44444444--4444--4444----|----|
  -6666--6666--66662222--2222--22222222--2222--22224444--4444--4444----|----|
  -4444--4444--44440000--0000--0000----------------2222--2222--2222----|----|

(Lyrics start)
                                                                         x2
  -----------------------------------------------------------------------|--|
  -----------------------------------------------------------------------|--|
  ----------------------------------4444444444444444---------------------|--|
  -6666--6666--66662222--2222--2222-4444444444444444-4444444444444444----|--|
  -6666--6666--66662222--2222--2222-2222222222222222-4444444444444444----|--|
  -4444--4444--44440000--0000--0000------------------2222222222222222----|--|


Bridge
Verse 2
Chorus 2


Solo 1 (Guitar 1)
(Guitar 2 plays Chorus Riff)
                                                                        x2
  ----------------------------------------------------------------------|---|
  ----------------------------------------------------------------------|---|
  ----------------------------------------------------------------------|---|
  --6-4h6/(8)-6h8/(9)-8h9/(11)----11-9h11/(13)-11h13/(14)-13h14/(16)----|---|
  ----------------------------------------------------------------------|---|
  ----------------------------------------------------------------------|---|

After 1st time play this
                                               ~~~~~~~~~
  -------------------------------------------------------|----|
  -------------------------------------------------------|----|
  --11-9-8-------------8----8-9-11----11b(13)--11--------|----|
  ---------11-9-8-9-11---11------------------------------|----|
  -------------------------------------------------------|----|
  -------------------------------------------------------|----|

After 2nd time play this
                                                         ~~~    ~~~~~~~~~
  -------------------------------------------------------------------------|
  --------------------------------------------12---------------------------|
  --11-9-8-------------8----8-9-11----11b(13)----11b(13)-11--/--16---------|
  ---------11-9-8-9-11---11------------------------------------------------|
  -------------------------------------------------------------------------|
  -------------------------------------------------------------------------|


Part of Chorus (Just Drums and bass for 2 Bars)
Build Up just play           Repeated, With a slow releasing PM.
                   ---------|
                   ---------|
                   ---------|
                   ----4----|
                   ----4----|
                   ----2----|

Chorus x4 (with guitar, instead of x2)


Solo 2

  --------------------------------------------------------------------------|
  --------------------------------------------------------------------------|
  ------------------------------------------------11---11---11---11---11-11-|
  -/-6----6-8-9--8--6--8-----6-8-9--8--9/(11)--9-9--9-9--9-9--9-9--9-9--9---|
  -------------------------7------------------------------------------------|
  --------------------------------------------------------------------------|

                              x2
  ----------------------------|----------------------------------------|
  ----------------------------|----------------------------------------|
  ----11---11---11---11---11--|---------20-----20-----21-----21-----20-|
  -8-8--8-8--8-8--8-8--8-8----|----18-18--18-18--18-18--18-18--18-18---|
  ----------------------------|----------------------------------------|
  ----------------------------|----------------------------------------|


  --------------------------------------------------------------------------|
  -------------------------------------------19-----19-----21-----21-----19-|
  ------16-----16-----18-----18-----16--16-16--16-16--16-16--16-16--16-16---|
  -14-14--14-14--14-14--14-14--14-14----------------------------------------|
  --------------------------------------------------------------------------|
  --------------------------------------------------------------------------|

                                        x2   ~~~~~~~~~~~~~~~~~~~~~~~~~
  --------------------------------------|-----------------------------------|
  --------------------------------------|-----------------------------------|
  ------18-----18-----20-----20-----18--|----16-----------------------------|
  -16-16--16-16--16-16--16-16--16-16----|-----------------------------------|
  --------------------------------------|-----------------------------------|
  --------------------------------------|-----------------------------------|
Добавлено: 27.01.2014
Другие материалы по этой песне:
  • Аккорды и текст

Страница создана 27.01.2014
http://primanota.ru/misc-unsigned-bands/state-of-error-love-light-chords.htm
Привет, Гость.
Предлагаем пройти революционный курс по гитаре.
Подарок от PrimaNota.Ru, забирай!