PrimaNota.ru - самый крупный в мире бесплатный архив песенных текстов, аккордов, табулатур и нот


Misc Unsigned Bands - State Of Error - How Much Is Enough - таба

Регистрация Запомнить меня
Войти через:  Facebook Google Twitter Vk Yandex Mail.ru

Misc Unsigned Bands - State Of Error - How Much Is Enough - таба

Печатать
Просмотров: 37
Search 'state of error - how much is enough'
in youtube/Google to listen to how much is enough? free,
or Buy how much is enough or other tracks from the old E.P.

P     = Pull off
/     = Slide up
\     = Slide down
PM    = Palm Mute
x     = Mute String
w/bar = Whammy Bar
/(10) = Slide to fret in bracket, but don't strum note!
^ v   = Alternate Picking (^ Down & v Up)


Intro (clean, chorus)

  Guitar 1
                                                          x4
E|--------------------------------------------------------|----|
B|--------------------------------------------------------|----|
G|--------------------------------------------------------|----|
D|--8-8-8--8-8-8--6-5-6--x-x--8-8-8--8-8-8--10-10-8--x-x--|----|
A|--------------------------------------------------------|----|
E|--------------------------------------------------------|----|
   |________________________PM__________________________|

  Guitar 2
                              x4
  ----------------------------|---|
  --8--8----------------------|---|
  --8--8--7--7--5--5--7--7----|---|
  --8--8--8--8--6--6--8--8----|---|
  --------8--8--6--6--8--8----|---|
  ----------------------------|---|


Verses (clean, chorus)

  Guitar 1
                                              x4
  --------------------------------------------|----|
  --8-----------------------------------------|----|
  ----8--------7----------5----------7--------|----|
  ------8----8---8------6---6------8---8------|----|
  ---------8-------8--6-------6--8-------8----|----|
  --------------------------------------------|----|


  Guitar 2
                              x4
  ----------------------------|---|
  --8--8----------------------|---|
  --8--8--7--7--5--5--7--7----|---|
  --8--8--8--8--6--6--8--8----|---|
  --------8--8--6--6--8--8----|---|
  ----------------------------|---|


Pre-Chorus (clean, chorus)

  Guitar 1
                                     x2
  -----------------------------------|------------------------|
  -----------------------------------|------------------------|
  ------5-------5-------7-------7----|------5-------5----7----|
  ----6---6---6---6---8---8---8---8--|----6---6---6---6--8----|
  --6-------6-------8-------8--------|--6-------6--------8----|
  -----------------------------------|------------------------|

  Guitar 2
                            x2
  --------------------------|---------------------|
  --------------------------|---------------------|
  --5--5--5--5--7--7--7--7--|--5--5--5--5----7----|
  --6--6--6--6--8--8--8--8--|--6--6--6--6----8----|
  --6--6--6--6--8--8--8--8--|--6--6--6--6----8----|
  --------------------------|---------------------|


Chorus (Distortion)
                               x6
  -----------------------------|----|
  -----------------------------|----|
  --88888-77777----------------|----|
  --88888-88888-66666-88888----|----|
  --66666-55555-66666-88888----|----|
  --------------44444-66666----|----|


Solo 1 (Distortion, Chorus)
                                                             w/bar
  -----------------------------------------------------------------------|
  -----------------------------------------------------------------------|
  --8-7-8-10-8-7---------------------------------------------------------|
  ---------------8-8/(10)-8----8-6\(5)-5\(1)-1----6-5-5-\-1--------------|
  ----------------------------------------------------------1-----(1)----|
  -----------------------------------------------------------\----/------|
                                                              \  /
                                                               \/
                                                               -1

  ----------------------------------------------------------------------|
  ----------------------------------------------------------------------|
  --8-7-8-10-8-7--------------------7-8-10--8--8p7-----------7-8-10--8--|
  ---------------8-8/(10)-8----8-10----------------8----8-10------------|
  ----------------------------------------------------------------------|
  ----------------------------------------------------------------------|


  --------------------------------|
  --------------------------------|
  --8p7---8p7---8p7---8p7----8----|
  ------8-----8-----8-----8-------|
  --------------------------------|
  --------------------------------|


Bridge (clean, chorus)

  Guitar 1                                                    x2 (Bridge 1)
                                                              x4 (Bridge 2)
  --11-11-x-x-11---10-10-x-x-10---8-8-x-x-8---10-10-x-x-10----|----|
  --8--8--x-x-8----11-11-x-x-11---9-9-x-x-9---11-11-x-x-11----|----|
  --8--8--x-x-8----10-10-x-x-10---8-8-x-x-8---10-10-x-x-10----|----|
  ------------------------------------------------------------|----|
  ------------------------------------------------------------|----|
  ------------------------------------------------------------|----|

  Guitar 2                    x2 (Bridge 1)
                              x4 (Bridge 2)
  ----------------------------|---|
  --8--8----------------------|---|
  --8--8--7--7--5--5--7--7----|---|
  --8--8--8--8--6--6--8--8----|---|
  --------8--8--6--6--8--8----|---|
  ----------------------------|---|


Verse 2
Pre-Chorus
Chorus

Solo 2 (Distortion, Chorus)

    ^  v  ^  v  ^  v  ^  v  ^  v  ^  v  ^     ^ v ^ v ^ v ^ v ^ v  ^  v x4
  --11-10----------10-11-10----------10-11----4-3-------3-4-3-----------|---|
  --------11----11----------11----11--------------4---4-------4----6--4-|-6-|
  -----------12----------------12-------------------5-----------5-------|---|
  ----------------------------------------------------------------------|---|
  ----------------------------------------------------------------------|---|
  ----------------------------------------------------------------------|---|


Bridge 2

Ending note and riff

  Guitar 1

  ----11----|
  ----8-----|
  ----8-----|
  ----------|
  ----------|
  ----------|


  Guitar 2

  ----------------------|
  ----8------------8----|
  ----8--------8--------|
  ----8----8------------|
  ----------------------|
  ----------------------|


A good song to play
Enjoy :D
Добавлено: 02.09.2013
Другие материалы по этой песне:
  • Аккорды и текст

Страница создана 02.09.2013
http://primanota.ru/misc-unsigned-bands/state-of-error-how-much-is-enough-chords.htm
Привет, Гость.
Предлагаем пройти революционный курс по гитаре.
Подарок от PrimaNota.Ru, забирай!