PrimaNota.ru - самый крупный в мире бесплатный архив песенных текстов, аккордов, табулатур и нот


Misc Unsigned Bands - State Of Error - Mirror Theory - таба

Регистрация Запомнить меня
Войти через:  Facebook Google Twitter Vk Yandex Mail.ru

Misc Unsigned Bands - State Of Error - Mirror Theory - таба

Печатать
Просмотров: 34
Search 'state of error - mirror theory'
in Google to listen to mirror theory free,
or Buy mirror theory or other tracks from the old E.P.


P     = Pull off
H     = Hammer on
/     = Slide up
\     = Slide down
x     = Mute String
~     = Vibrato
PM    = Palm Mute
////  = Tremolo
w/bar = Whammy Bar
B     = Bend
B(14) = Bend note untill it sounds like the number in the bracket

Intro/Verse
                                                                    X4
E|------------------------------------------------------------------|----|
B|------------------------------------------------------------------|----|
G|--5--X-X----------------------------------------------------------|----|
D|--5--X-X--5--X--2-2-2--2-2-2-2--3-3--3--3-3--3--3-3--3--3-3--3----|----|
A|--3--X-X--5--X--2-2-2--2-2-2-2--3-3--3--3-3--3--3-3--3--3-3--3----|----|
E|----------3--X--0-0-0--0-0-0-0--1-1--1--1-1--1--1-1--1--1-1--1----|----|
                                 |PM_|   |___|   |___|   |___|

  Guitar 1

  -------------|
  -------------|
  -------------|
  --555555555--|
  --555555555--|
  --333333333--|
   |___PM____|

  Guitar 2 (Live Version)

  -----------------------------------------------|
  -----------------------------------------------|
  -----------------------------------------------|
  -----------------------------------------------|
  ----------2---2-3-/-5--------------------------|
  --3-5-3-5---5---------------////slide\\\\------|
   |________PM_________|


Pre-Chorus
                                      x2
  ------------------------------------|----|
  ------------------------------------|----|
  --55--55----------------------------|----|
  --55--55--55--55--22--22--33--33----|----|
  --33--33--55--55--22--22--33--33----|----|
  ----------33--33--00--00--11--11----|----|
   |______________PM______________|

  Guitar 1

  ----------------------------------|
  ----------------------------------|
  --55--55--------------------------|
  --55--55--55--55--22--22--33--33--|
  --33--33--55--55--22--22--33--33--|
  ----------33--33--00--00--11--11--|

  Guitar 2 (Live Version)

  ----------------------------------------|
  ----------------------------------------|
  --55--55--------------------------------|
  --55--55-------------22--22-------------|
  --33--33------2-3-5--22--22------0-1-3--|
  ----------3-5--------00--00--1-3--------|

  Guitar 1

  ------------------------------------|
  ------------------------------------|
  --55555555555555555555555555555555--|
  ------------------------------------|
  --33333333333333333333333333333333--|
  ------------------------------------|

  Guitar 2

  ---------------------------------------|
  ---------------------------------------|
  --55555555-----------------------------|
  --55555555-55555555-22222222-33333333--|
  --33333333-55555555-22222222-33333333--|
  -----------33333333-00000000-11111111--|


Chorus
                                                                      x2
  --------------------------------------------------------------------|-----|
  --------------------------------------------------------------------|-----|
  --5-5555-5----------------------------------------------------------|--5--|
  --5-5555-5----5555555555555555-7777777777777777-3333333333333333----|--5--|
  --3-3333-3----5555555555555555-7777777777777777-3333333333333333----|--3--|
  --------------3333333333333333-5555555555555555-1111111111111111----|-----|
     |_PM_|

Verse 2
Pre-Chorus
Chorus


Solo

  Guitar 1
  (Plays Chorus Riff 2 More Times)

  Guitar 2 Plays
                      ~~~~~~                             ~~~~~~
  -------------------------------------------------------------------|
  -------------------------------------------------------------------|
  ----5p4h5-/-7-/-9-/-12----12----17-15-14---------------------------|
  -----------------------------------------17-15-14-15-/-17----17----|
  -------------------------------------------------------------------|
  -------------------------------------------------------------------|


  -------------------------------------------------------------------|
  -15-------15-------15-------15-------17-------17-------17-------17-|
  ----17p15----17p15----17p15----17p15----19p17----19p17----19p17----|
  -------------------------------------------------------------------|
  -------------------------------------------------------------------|
  -------------------------------------------------------------------|

                                               ~~~~~~
  -------------------------------------------------------------------|
  -18p17p15--18p17p15--18p17p15--18p17p15--18b(20)-18----------------|
  -------------------------------------------------------------------|
  -------------------------------------------------------------------|
  -------------------------------------------------------------------|
  -------------------------------------------------------------------|

                      w/bar                               ~~~~~~
  -------------------------------------------------------------------|
  -------------------------------------------------------------------|
  ----5p4h5-/-7-/-9-/-0---- (0)--------------------------------------|
  ---------------------\----/------------------2---2--3-/-5------5---|
  ----------------------\--/-----------3-5-3-5---5-------------------|
  -----------------------\/------------------------------------------|
                         -1           |_____PM______|

  -------------------------------------------------------------------|
  -------------------------------------------------------------------|
  ----2p0-0--4p0-0--5p0-0--7p0-0--5p0-0--7p0-0--9p0-0--10p0-0--9p0-0-|
  -------------------------------------------------------------------|
  -------------------------------------------------------------------|
  -------------------------------------------------------------------|

                                   ~~~~~
  ------------------------|--------------------------------------------|
  ------------------------|--------------------------------------------|
  -10p0-0--12p0-0--10p0-0-|-12b(14)-12----10----9--------5-------------|
  ------------------------|--------------------------------------------|
  ------------------------|--------------------------------------------|
  ------------------------|--------------------------------------------|
                          |______________Album Version________________|

LIVE VERSION
(just the ending changes)
When you slide to the note do not pluck the string!
Hense the reason the notes are in brakets.

                          //////////// ~~~~~     ~~~~~~~~~~~~~~~~~~~~~
  --------------------------------------------------------------------|
  ------------13------------------------------------------------------|
  ----12/(14)----14\(12)--10-12-10-10--9-----9-/-5--------------------|
  --------------------------------------------------------------------|
  --------------------------------------------------------------------|
  --------------------------------------------------------------------|


Ending Riff

  Guitar 1
  (Plays Pre-Chorus Riff)

  Guitar 2 Plays
                                                      ~~~~  x2
  ----------------------------------------------------------|----|
  ----------------------------------------------------------|----|
  --5-4-5-7-9-7-5-7-5-4-5-7-9-7-5-7-5-4-5-7-9-7-5-7-/-12----|----|
  ----------------------------------------------------------|----|
  ----------------------------------------------------------|----|
  ----------------------------------------------------------|----|


Emjoy :)
Добавлено: 05.11.2013
Другие материалы по этой песне:
  • Аккорды и текст

Страница создана 05.11.2013
http://primanota.ru/misc-unsigned-bands/state-of-error-mirror-theory-chords.htm
Привет, Гость.
Предлагаем пройти революционный курс по гитаре.
Подарок от PrimaNota.Ru, забирай!