PrimaNota.ru - самый крупный в мире бесплатный архив песенных текстов, аккордов, табулатур и нот


Misc Unsigned Bands - State Of Error - Frontline - таба

Регистрация Запомнить меня
Войти через:  Facebook Google Twitter Vk Yandex Mail.ru

Misc Unsigned Bands - State Of Error - Frontline - таба

Печатать
Просмотров: 42
Уроки эстрадного вокала в Санкт-Петербурге
Search 'state of error - mirror theory'
in Google to listen to Frontline free,
or Buy Frontline or other tracks from the old E.P.

*     = Natural Harmonic
x     = Mute String
w/bar = Whammy Bar


Intro

  Guitar 1 (Clean)
                             x2                          x2
E|---------------------------|---------------------------|----|
B|---------------------------|---------------------------|----|
G|--7-7-7-7-7-7--------------|--4-4-4-4-4-4--------------|----|
D|--7-7-7-7-7-7-7-7-7-7-7-7--|--4-4-4-4-4-4-5-5-5-5-5-5--|----|
A|--5-5-5-5-5-5-7-7-7-7-7-7--|--2-2-2-2-2-2-5-5-5-5-5-5--|----|
E|--------------5-5-5-5-5-5--|--------------3-3-3-3-3-3--|----|

  Guitar 2 (Distortion)

    *    *  *  *    *  *   *    *  *  *    *  *  *  x2 *
  --------------------------------------------------|-----|
  -------------7----------12------------------------|-----|
  --7----7--5-------7--5--------7--5----------7--5--|--7--|
  ------------------------------------7----7--------|-----|
  --------------------------------------------------|-----|
  --------------------------------------------------|-----|


Verses

  Guitar 1
  (Plays intro riff, clean)


Chorus

  Guitar 1
                                                         x3
  -------------------------------------------------------|--|
  -------------------------------------------------------|--|
  --444444444444--------------777777777777---------------|--|
  --444444444444-555555555555-777777777777-777777777777--|--|
  --222222222222-555555555555-555555555555-777777777777--|--|
  ---------------333333333333--------------555555555555--|--|

  Guitar 2
                                                                          x3
  -------------------------------------------------------------------------|
  -------------------------------------------------------------------------|
  --4444-12-12-x-11-11-11------14-14-x-16-16-16-777777777777---------------|
  --4444-------x----------5555-------x----------777777777777-777777777777--|
  --2222-10-10-x-9--9--9--5555-12-12-x-14-14-14-555555555555-777777777777--|
  ------------------------3333-------------------------------555555555555--|

  Both Guitars

  ----------------------------------------|
  ----------------------------------------|
  -----------------------------------7----|
  --5-5-5-5-5-5-5-5-7-7-7-7-7-7-7-7--7----|
  --5-5-5-5-5-5-5-5-7-7-7-7-7-7-7-7--5----|
  --3-3-3-3-3-3-3-3-5-5-5-5-5-5-5-5-------|


Verse 2
Chorus

Interlude

  Guitar 1 (Clean)
             x4
  -----------|----|
  -----------|----|
  --7--6--2--|----|
  --7--7--2--|----|
  --5--4--0--|----|
  -----------|----|

  Guitar 2
                                      x2   After 1st time play this      2nd
  ------------------------------------|---------------------------------|---|
  ------------------------------------|---------------------------------|---|
  ------------------------------------|---------------------------------|---|
  ----7---7---7---7---7---7---7---7---|---7---7---7---7---7---7---7---7-|-7-|
  --5---5---5---5---4---4---4---4-----|-0---0---0---0---0---0---0---0---|-0-|
  ------------------------------------|---------------------------------|---|


Ending Chorus

  Guitar 1
  (Plays Usual Riff)

  Guitar 2 has extra octave slides

  ---------------------------------------------------------------------|
  ---------------------------------------------------------------------|
  --4444-12-12-x-11-11-11------14-14-x-16-16-16-7777-14-14-x-12-12-12--|
  --4444-------x----------5555-------x----------7777-------x-----------|
  --2222-10-10-x-9--9--9--5555-12-12-x-14-14-14-5555-12-12-x-10-10-10--|
  ------------------------3333-----------------------------------------|

                           x3
  -------------------------|----|
  -------------------------|----|
  -------12-12-x-11-11-11--|----|
  --7777-------x-----------|----|
  --7777-10-10-x-9--9--9---|----|
  --5555-------------------|----|

  Both guitar Riff
  Then Harmonic 'intro riff'
  Put some w/bar on the last harmonic.
  & There you go :)


Enjoy :p
Добавлено: 08.08.2013
Другие материалы по этой песне:
  • Аккорды и текст

Страница создана 08.08.2013
http://primanota.ru/misc-unsigned-bands/state-of-error-frontline-chords.htm
Привет, Гость.
Предлагаем пройти революционный курс по гитаре.
Подарок от PrimaNota.Ru, забирай!