PrimaNota.ru - самый крупный в мире бесплатный архив песенных текстов, аккордов, табулатур и нот


Misc Unsigned Bands - State Of Error - Deos - таба, видео

Регистрация Запомнить меня
Войти через:  Facebook Google Twitter Vk Yandex Mail.ru

Misc Unsigned Bands - State Of Error - Deos - таба, видео

Печатать
Просмотров: 37
Search 'state of error - mirror theory'
in Google to listen to DEOS free,
or Buy DEOS or other tracks from the old E.P.

P     = Pull off
/     = Slide up
\     = Slide down
*     = Mute Strings
(0)   = Notes in brackets by them selfs are OPTIONAL notes.


Intro (Guitar 1)

E|---------------------------------------------------------------------|
B|---------------------------------------------------------------------|
G|---------------------------------------------------------------------|
D|----7-------7-------7---------------7-------7-------7----------------|
A|------5-4-5---5-4-5---5-4-5-7-5-4-5---5-4-5---5-4-5---5-4-5-7-0------|
E|----------------------------------------------------------------3----|

      (Guitar 2)

  --------------------------------------------------------------------------|
  --------------------------------------------------------------------------|
  ----7-------------------7-------------------------------------------------|
  ----7----7----5----7----7----7----5----7----9----7----5----7----9----7----|
  ----5----7----5----7----5----7----5----7----9----7----5----7----9----7----|
  ---------5----3----5---------5----3----5----7----5----3----5----7----5----|

Verses (Guitar 1)

  -------------------------------------------------------|---------|
  -------------------------------------------------------|---------|
  ----7777-*-*-7777-*-*-555-*-4444-*-*-4444-*-*-555-*----|---------|
  ---------*-*------*-*-----*------*-*------*-*-----*----|----5----|
  ----5555-*-*-5555-*-*-333-*-2222-*-*-2222-*-*-333-*----|----5----|
  -------------------------------------------------------|----3----|

       (Guitar 2)

  -------------------------------------------------------|---------|
  ----------------------888-*-7777-*-*-7777-*-*-888-*----|---------|
  ----7777-*-*-7777-*-*-----*------*-*------*-*-----*----|---------|
  ---------*-*------*-*-555-*-4444-*-*-4444-*-*-555-*----|----5----|
  ----5555-*-*-5555-*-*----------------------------------|----5----|
  -------------------------------------------------------|----3----|

Chorus (Intro Riff)
Verse 2

Solo (Guitar 1)

  ---------------------------------------------------------------|
  -------7-----8p7-----7-----7-----8p7-----7-----7-----8p7-----7-|
  -/--7-----7-------7-------------------7-------------------7----|
  ------------------------9-----9-------------7-----7------------|
  ---------------------------------------------------------------|
  ---------------------------------------------------------------|

  ------------------------------------------------|
  -------7-----------------------7-----8p7-----7--|
  -------------------9-----/--7-----7-------7-----|
  -/--5-----5--/--7-----7-------------------------|
  ------------------------------------------------|
  ------------------------------------------------|

  -----------------------------9-10-9-----------------9-------------0--0--|
  --------------------12----12--------12--(0)--/--10-----10-\-8--8--7--5--|
  -----------11----11----11-----------------------------------------------|
  -9-12-9-12----12--------------------------------------------------------|
  ------------------------------------------------------------------------|
  ------------------------------------------------------------------------|

     (Guitar 2)
                           x2
  ------------------------|----|
  ------------------------|----|
  ----7-------------------|----|
  ----7----5----9----7----|----|
  ----5----5----9----7----|----|
  ---------3----7----5----|----|

Chorus
Ending (Chorus with gaps)

Enjoy :)
Добавлено: 27.11.2013
Другие материалы по этой песне:
  • Аккорды и текст

Страница создана 27.11.2013
http://primanota.ru/misc-unsigned-bands/state-of-error-deos-chords.htm
Привет, Гость.
Предлагаем пройти революционный курс по гитаре.
Подарок от PrimaNota.Ru, забирай!