PrimaNota.ru - самый крупный в мире бесплатный архив песенных текстов, аккордов, табулатур и нот


Misc Unsigned Bands - State Of Error - Audience Of None - таба

Регистрация Запомнить меня
Войти через:  Facebook Google Twitter Vk Yandex Mail.ru

Misc Unsigned Bands - State Of Error - Audience Of None - таба

Печатать
Просмотров: 34
Search 'state of error - audience of none'
in youtube/Google to listen to audience of none free,
or Buy audience of none or other tracks from the Album

P     = Pull off
H     = Hammer on
/     = Slide up
\     = Slide down
x     = Mute String
~     = Vibrato
PM    = Palm Mute
*     = Pinch Harmonic
w/bar = Whammy Bar
/(8)  = Slide to fret in bracket but don't strum note
(5)   = Notes in brackets on there own are 'Optional Notes'


Intro
(Feedback with w/bar and 'Delay')
                                  x2                                  x2
E|-----------------------------------|-----------------------------------|--|
B|-----------------------------------|-----------------------------------|--|
G|--2-2-2-3-3-3-5-5-5-3-3-3-2-2-3-3--|-----------------------------------|--|
D|--0-0-0-0-0-0-0-0-0-0-0-0-0-0-0-0--|--2-2-2-3-3-3-5-5-5-3-3-3-2-2-3-3--|--|
A|-----------------------------------|--0-0-0-0-0-0-0-0-0-0-0-0-0-0-0-0--|--|
E|-----------------------------------|-----------------------------------|--|


Intro Part II

  --------------------------------------------------------------------------|
  --------------------------------------------------------------------------|
  --7--777777--7--777777--7--77--7--77--7--777777---------------------------|
  --7--777777--7--777777--7--77--7--77--7--777777--7--777777--7--777777--7--|
  --5--555555--5--555555--5--55--5--55--5--555555--7--777777--7--777777--7--|
  -------------------------------------------------5--555555--5--555555--5--|
      |__PM__|   |______|   |__|   |__|   |______|   |______|   |______|

                                    *~~~       *~~~                     *~~~
  ------------------------|-------------------------------------------------|
  ------------------------|-------------------------------------------------|
  ------------------------|--7--77------7--77------7--77--7--77--7--77------|
  --77--7--77--7--777777--|--7--77--7---7--77--7---7--77--7--77--7--77--7---|
  --77--7--77--7--777777--|--5--55------5--55------5--55--5--55--5--55------|
  --55--5--55--5--555555--|-------------------------------------------------|
   |__|   |__|   |______|      |__|       |__|       |__|   |__|   |__|

           *~~~       *~~~                     *~~~
  -----------------------------------------------------|------------|
  -----------------------------------------------------|------------|
  -----------------------------------------------------|----7--\----|
  --7--77------7--77------7--77--7--77--7--77----------|----7--\----|
  --7--77--7---7--77--7---7--77--7--77--7--77--7-------|----5--\----|
  --5--55------5--55------5--55--5--55--5--55----------|------------|
      |__|       |__|       |__|   |__|   |__|

Verse Riff 1
                                      x2                                  x2
  ------------------------------------|-----------------------------------|
  ------------------------------------|-----------------------------------|
  ------------------------------------|-----------------------------------|
  --7-0-0-8-0-0-10-0-0-8-0-0-7-0-8-0--|-----------------------------------|
  ------------------------------------|--7-0-0-8-0-0-10-0-0-8-0-0-7-0-8-0-|
  ------------------------------------|-----------------------------------|

Chorus

  --------------------------------------------------------------|
  --------------------------------------------------------------|
  --------------------------------77777777----------------------|
  --88888888--33333333--77777777--77777777--88888888--33333333--|
  --88888888--33333333--77777777--55555555--88888888--33333333--|
  --66666666--11111111--55555555------------66666666--11111111--|


  ----------------------------------------------------------------------|
  ----------------------------------------------------------------------|
  --------------------------------------------------77777777------------|
  --7777777777777777--88888888--33333333--77777777--77777777--88888888--|
  --7777777777777777--88888888--33333333--77777777--55555555--88888888--|
  --5555555555555555--66666666--11111111--55555555------------66666666--|

                                                                   x3
  ------------|----------------------------------------------------|------|
  ------------|----------------------------------------------------|------|
  ------------|----------------------------------------------------|--7---|
  --33333333--|--7-/(8)----8-/(10)---10\(8)----8-\(7)----7-/(8)-8--|--7---|
  --33333333--|----------------------------------------------------|--5---|
  --11111111--|--5-/(6)----6-/(8)----8-\(6)----6-\(5)----5-/(6)-6--|------|


Verse Riff 2

  ------------------------------------------------------------------------|
  ------------------------------------------------------------------------|
  ------------------------------------------------------------------------|
  ------------------------------------------------------------------------|
  --(5)--/--17-19-17-20-17-19-17-20-17h19--17-19-17-20-17-19-17-20-17h19--|
  ------------------------------------------------------------------------|

                                      ~~~~~~~
  ----------------------------------------------x-x-x-x----|
  ----------------------------------------------x-x-x-x----|
  ----------------------------------------------x-x-x-x----|
  ----------------------------------------------x-x-x-x----|
  --15-17-15-17-15-17-15-17-15h17p15--19--------x-x-x-x----|
  ----------------------------------------------x-x-x-x----|


Chorus

Interlude

  ------------------------------------------------------------------|
  ------------------------------------------------------------------|
  -----------------7777777777777777-777-/-99999-/-1010101010101010--|
  --8-\----10-\----7777777777777777---------------------------------|
  -----------------5555555555555555-555-/-77777-/-8-8-8-8-8-8-8-8---|
  --6-\----8--\-----------------------------------------------------|

                                  Guitar 2 (Harmonize octaves)

                                  ----------------------------------|
                                  --------88888-/-1010101010101010--|
                                  --777-----------------------------|
                                  --------55555-/-7-7-7-7-7-7-7-7---|
                                  --555-----------------------------|
                                  ----------------------------------|

Solo

  Guitar 1

  ----------------------------------------------------------------------|
  ----------------------------------------------------------------------|
  -------------------5555555555555555-77777777777777777777777777777777--|
  --8888888888888888-5555555555555555-77777777777777777777777777777777--|
  --8888888888888888-3333333333333333-55555555555555555555555555555555--|
  --6666666666666666----------------------------------------------------|


  ----------------------------------------------------------------------|
  ----------------------------------------------------------------------|
  -------------------5555555555555555-----------------------------------|
  --8888888888888888-5555555555555555-77777777777777777777777777777777--|
  --8888888888888888-3333333333333333-77777777777777777777777777777777--|
  --6666666666666666------------------55555555555555555555555555555555--|

  Guitar 2
                                                           x2
  ---------------------------------------------------------|--|
  ---------------------------------------------------------|--|
  --14-14-14-14-14-14-14-14-\-12-12-12-12-\-10-10-10-10-/--|--|
  ---------------------------------------------------------|--|
  --12-12-12-12-12-12-12-12-\-10-10-10-10-\-8--8--8--8--/--|--|
  ---------------------------------------------------------|--|


  -----------------------------------------------------------------|
  -----------------------------------------------------------------|
  -9-9-9-9-9-9-9-9-/-10-10-10-10-/-12-12-12-12-\-7-7-7-7-7-7-7-7-/-|
  -----------------------------------------------------------------|
  -7-7-7-7-7-7-7-7-/-8--8--8--8--/-10-10-10-10-\-5-5-5-5-5-5-5-5-/-|
  -----------------------------------------------------------------|


  -----------------------------------------------------------------|
  -----------------------------------------------------------------|
  -9-9-9-9-/-10-10-10-10-/-14-14-14-14-14-14-14-14-\-12-12-12-12-\-|
  -----------------------------------------------------------------|
  -7-7-7-7-/-8--8--8--8--/-12-12-12-12-12-12-12-12-\-10-10-10-10-\-|
  -----------------------------------------------------------------|


  -------------------------------------------------------------------|
  -------------------------------------------------------------------|
  -10-10-10-10-/-17-17-17-17-17-17-17-17-\-15-15-15-15-\-14-14-14-14-|
  -------------------------------------------------------------------|
  -8--8--8--8--/-15-15-15-15-15-15-15-15-\-13-13-13-13-\-12-12-12-12-|
  -------------------------------------------------------------------|


  -------------------------------------------------|
  -------------------------------------------------|
  -12-12-12-12-12-12-12-12-12-12-12-12-12-12-12-12-|
  -------------------------------------------------|
  -10-10-10-10-10-10-10-10-10-10-10-10-10-10-10-10-|
  -------------------------------------------------|

  ~~~~~~~~~~~~~~~~~~~~~~~~~~~~~~~~~~~~~~~~~~~~~~~~~~
  -----------------------------------------------------|
  -----------------------------------------------------|
  -12-12-12-12-12-12-12-12-12-12-12-12-12-12-12-12-----|
  -----------------------------------------------------|
  -10-10-10-10-10-10-10-10-10-10-10-10-10-10-10-10-----|
  -----------------------------------------------------|


Chorus


Thats it :p
Enjoy
Добавлено: 16.10.2013
Другие материалы по этой песне:
  • Аккорды и текст

Страница создана 16.10.2013
http://primanota.ru/misc-unsigned-bands/state-of-error-audience-of-none-chords.htm
Привет, Гость.
Предлагаем пройти революционный курс по гитаре.
Подарок от PrimaNota.Ru, забирай!