PrimaNota.ru - самый крупный в мире бесплатный архив песенных текстов, аккордов, табулатур и нот


Misc Unsigned Bands - Respectable Men - Introvert - таба

Регистрация Запомнить меня
Войти через:  Facebook Google Twitter Vk Yandex Mail.ru

Misc Unsigned Bands - Respectable Men - Introvert - таба

Печатать
Просмотров: 57
-------------------------------------------------------------------------------
                        Introvert - Respectable Men
-------------------------------------------------------------------------------
Tabbed by: Jack Higgins
E-mail: jackphiggins5@gmail.com

Tuning: E Standard

Note: The bridge is the bass chorus.

Chorus p1
e|---------------------------------------------------------------------------------------|
B|---------------------------------------------------------------------------------------|
G|8--6-6---------------------------------------------------------------------------------|
D|8--6-6-6-6-6-6-6-6-6-6-6---------------------------------------------------------------|
A|6--4-4-6-6-6-6-6-6-6-6-6---------------------------------------------------------------|
E|-------4-4-4-4-4-4-4-4-4---------------------------------------------------------------|

Bass Chorus p1
G|---------------------------------------------------------------------------|
D|----8-------6--------------------------------------------------------------|
A|6-6---6-4-4---4---------4-4-6-6--------------------------------------------|
E|----------------4-4-6-6----------------------------------------------------|

Chorus p2
e|---------------------------------------------------------------------------|
B|---------------------------------------------------------------------------|
G|8--6-6---------------------------------------------------------------------|
D|8--6-6-4-4-4-4-4-4-4-4-4---------------------------------------------------|
A|6--4-4-4-4-4-4-4-4-4-4-4---------------------------------------------------|
E|-------2-2-2-2-2-2-2-2-2---------------------------------------------------|

Bass Chorus p2
G|---------------------------------------------------------------------------|
D|----6-------6--------------------------------------------------------------|
A|6-6---6-4-4---4------------------------------------------------------------|
E|----------------2-2-2-2-2-2-2-2--------------------------------------------|

Verse
e|---------------------------------------------------------------------------|
B|---------------------------------------------------------------------------|
G|6-6-666--------------------------6-6-666-----------------------------------|
D|6-6-6666-66-666-8-88-888-8-88-8886-6-6666-66-666-8-88-888-8-88-888---------|
A|4-4-4446-66-666-8-88-888-8-88-8884-4-4446-66-666-8-88-888-8-88-888---------|
E|-------4-44-444-6-66-666-6-66-666-------4-44-444-6-66-666-6-66-666---------|

Bass Verse
G|------------------------------6--------------------------------------------|
D|--------------------------6--8-----------------------------6---------------|
A|4-4-444---------------6--8-------4-4-444---------------6-8---8-6-4---------|
E|-------4-44-444-6--6--8-----------------4-44-444-6-6-8---------------------|

Chorus x2
Verse x4
Chorus x1
Verse x4
Chorus x1
Bridge
Chorus x2
Добавлено: 25.04.2016
Другие материалы по этой песне:
  • Аккорды и текст

Страница создана 25.04.2016
http://primanota.ru/misc-unsigned-bands/respectable-men-introvert-chords.htm
Привет, Гость.
Предлагаем пройти революционный курс по гитаре.
Подарок от PrimaNota.Ru, забирай!