PrimaNota.ru - самый крупный в мире бесплатный архив песенных текстов, аккордов, табулатур и нот


Misc Unsigned Bands - Respectable Men - Seem Sick - таба

Регистрация Запомнить меня
Войти через:  Facebook Google Twitter Vk Yandex Mail.ru

Misc Unsigned Bands - Respectable Men - Seem Sick - таба

Печатать
Просмотров: 104
Уроки эстрадного вокала в Санкт-Петербурге
-------------------------------------------------------------------------------
                     Seem Sick - Respectable Men
-------------------------------------------------------------------------------
Tabbed by: Jack Higgins
E-mail: jackphiggins5@gmail.com

Tuning: E standard

Note: This is literally the exact same riff the entire song (save for the solo,
which was just some random stuff that doesn't need to be tabbed).

Guitar riff
e|---------------------------------------------------------------------------|
B|---------------------------------------------------------------------------|
G|----5-5-5------------------------------------------------------------------|
D|7---5-5-5---5--------------------------------------------------------------|
A|7---3-3-3---5--------------------------------------------------------------|
E|5-----------3--------------------------------------------------------------|

Bass riff
G|---------------------------------------------------------------------------|
D|---------------------------------------------------------------------------|
A|----3-3-3------------------------------------------------------------------|
E|5-----------3--------------------------------------------------------------|
Добавлено: 25.04.2016
Другие материалы по этой песне:
  • Аккорды и текст

Страница создана 25.04.2016
http://primanota.ru/misc-unsigned-bands/respectable-men-seem-sick-chords.htm
Привет, Гость.
Предлагаем пройти революционный курс по гитаре.
Подарок от PrimaNota.Ru, забирай!