PrimaNota.ru - самый крупный в мире бесплатный архив песенных текстов, аккордов, табулатур и нот


Misc Unsigned Bands - Rev Dr Joseph Jowett - Westminster Chimes - таба

Регистрация Запомнить меня
Войти через:  Facebook Google Twitter Vk Yandex Mail.ru

Misc Unsigned Bands - Rev Dr Joseph Jowett - Westminster Chimes - таба

Печатать
Просмотров: 106
Уроки эстрадного вокала в Санкт-Петербурге
-------------------------------------------------------------------------------
                   Westminster Chimes (Big Ben) - Rev. Dr. Joseph Jowett
-------------------------------------------------------------------------------
Tabbed by: istarii
E-mail: thompson.luke@email.com

Tuning: Standard

e|-----------------|------------------|-----------------|-----------------|
B|-----------------|------------------|-----------------|-----------------|
G|-----1-----------|---------1--------|-1---------------|---------1-------|
D|-2-------4-------|-2---4--------2---|-----2---4-------|-----4-------2---|
A|-------------2---|------------------|-------------2---|-2---------------|
E|-----------------|------------------|-----------------|-----------------|

e|-----------------|
B|-----------------|
G|-1~--------------|   x12
D|-2~--------------|  
A|-2~--------------|
E|-----------------|



https://www.youtube.com/watch?v=3dIv8hpiQIg

************************************

| /   slide up
| \   slide down
| h   hammer-on
| p   pull-off
| ~   vibrato
| +   harmonic
| x   Mute note
| b   Bend
| pb  Pre-bend
| br  Bend release
| pbr Pre-bend release
| brb Bend release bend

************************************
Добавлено: 25.04.2016
Другие материалы по этой песне:
  • Аккорды и текст

Страница создана 25.04.2016
http://primanota.ru/misc-unsigned-bands/rev-dr-joseph-jowett-westminster-chimes-chords.htm
Привет, Гость.
Предлагаем пройти революционный курс по гитаре.
Подарок от PrimaNota.Ru, забирай!