PrimaNota.ru - самый крупный в мире бесплатный архив песенных текстов, аккордов, табулатур и нот


Misc Unsigned Bands - Respectable Men - We Can Be Punk Kinda - таба

Регистрация Запомнить меня
Войти через:  Facebook Google Twitter Vk Yandex Mail.ru

Misc Unsigned Bands - Respectable Men - We Can Be Punk Kinda - таба

Печатать
Просмотров: 54
-------------------------------------------------------------------------------
                             We Can Be Punk (Kinda) - Respectable Men
-------------------------------------------------------------------------------
Tabbed by: Jack Higgins
E-mail: jackphiggins5@gmail.com

Tuning: Drop D

Note: The bass just follows the rhythm guitar on the low D string.

Verse
e|---------------------------------------------------------------------------------------|
B|---------------------------------------------------------------------------------------|
G|---------------------------------------------------------------------------------------|
D|0-0--2-2--5-5-----0-0--2-2--5-5--------------------------------------------------------|
A|0-0--2-2--5-5-----0-0--2-2--5-5--------------------------------------------------------|
D|0-0--2-2--5-5-----0-0--2-2--5-5--------------------------------------------------------|

Chorus p1
e|---------------------------------------------------------------------------------------|
B|---------------------------------------------------------------------------------------|
G|---------------------------------------------------------------------------------------|
D|8--8-8-8-8--8--8-8-8-8--5--5-5-5-5--3--3-3-3-3-----------------------------------------|
A|8--8-8-8-8--8--8-8-8-8--5--5-5-5-5--3--3-3-3-3-----------------------------------------|
D|8--8-8-8-8--8--8-8-8-8--5--5-5-5-5--3--3-3-3-3-----------------------------------------|

Chorus p2
e|---------------------------------------------------------------------------------------|
B|---------------------------------------------------------------------------------------|
G|---------------------------------------------------------------------------------------|
D|1--1-1-1-1--1--1-1-5-8--8-8-8-8--5--5-5-5-5--8--8-8-8--8--8--8-8-8-8-------------------|
A|1--1-1-1-1--1--1-1-5-8--8-8-8-8--5--5-5-5-5--8--8-8-8--8--8--8-8-8-8-------------------|
D|1--1-1-1-1--1--1-1-5-8--8-8-8-8--5--5-5-5-5--8--8-8-8--8--8--8-8-8-8-------------------|

Solo (Chorus played on rhythm guitar)
e|---------------------------------------------------------------------------------------|
B|---------------------------------------------------------------------------------------|
G|---------------------------8--8-8-8-8-8--8--8-8-8-8-8----------------------------------|
D|8--8-8-8-8-8-8--8-8-8-8-8--------------------------------------------------------------|
A|---------------------------8--8-8-8-8-8--8--8-8-8-8-8----------------------------------|
D|8--8-8-8-8-8-8--8-8-8-8-8--------------------------------------------------------------|

e|---------------------------------------------------------------------------------------|
B|---------------------------------------------------------------------------------------|
G|10--10-10-10-10-10--10--10-10-10-10-10--12-13--13-13-13-13-13--------------------------|
D|---------------------------------------------------------------------------------------|
A|10--10-10-10-10-10--10--10-10-10-10-10--12-13--13-13-13-13-13--------------------------|
D|---------------------------------------------------------------------------------------|

e|---------------------------------------------------------------------------------------|
B|---18-------18----18--------18----18-------18----18--------18--------------------------|
G|15----15-15----15----15-15-------------------------------------------------------------|
D|-------------------------------17----17-17----15----15--15-----------------------------|
A|---------------------------------------------------------------------------------------|
D|---------------------------------------------------------------------------------------|

e|---------------------------------------------------------------------------------------|
B|---18-------18----18------------18-------18----18------18----18-------18----18-------18|
G|----------------------------------------------------------15----15-15----15----15-15---|
D|--------------------------15-17----17-17----15----15-15--------------------------------|
A|18----18-18----18----18----------------------------------------------------------------|
D|---------------------------------------------------------------------------------------|


Order:
Verse x3
Chorus p1 x3
Chorus p2 x1
Verse x2
Chorus p1 x3
Chorus p2 x1
Solo
Chorus p1 x3
Chorus p2 x1
Добавлено: 25.04.2016
Другие материалы по этой песне:
  • Аккорды и текст

Страница создана 25.04.2016
http://primanota.ru/misc-unsigned-bands/respectable-men-we-can-be-punk-kinda-chords.htm
Привет, Гость.
Предлагаем пройти революционный курс по гитаре.
Подарок от PrimaNota.Ru, забирай!