PrimaNota.ru - самый крупный в мире бесплатный архив песенных текстов, аккордов, табулатур и нот


Misc Unsigned Bands - Respectable Men - One Fifth - таба

Регистрация Запомнить меня
Войти через:  Facebook Google Twitter Vk Yandex Mail.ru

Misc Unsigned Bands - Respectable Men - One Fifth - таба

Печатать
Просмотров: 50
-------------------------------------------------------------------------------
                          1/5 - Respectable Men
-------------------------------------------------------------------------------
Tabbed by: Jack Higgins
E-mail: jackphiggins5@gmail.com

Tuning: Drop D
Note: The bass just follows the guitar.
Also, the bridge is just the verse on bass, followed by the chorus palm muted
on guitar, before the pre-chorus and final chorus.

Verse
e|---------------------------------------------------------------------------|
B|---------------------------------------------------------------------------|
G|3-3-3---------------------------3-3-3--------------------------------------|
D|3-3-3---3-3-3---1-1-1---3-3-3---3-3-3---3-3-3---1--1-1-1-1-1-3--3-3--3-3-3-|
A|1-1-1---3-3-3---1-1-1---3-3-3---1-1-1---3-3-3---1--1-1-1-1-1-3--3-3--3-3-3-|
D|--------3-3-3---1-1-1---3-3-3-----------3-3-3---1--1-1-1-1-1-3--3-3--3-3-3-|

Pre-Chorus
e|---------------------------------------------------------------------------|
B|---------------------------------------------------------------------------|
G|---------------------------------------------------------------------------|
D|0--0-0--0-0-0-2--2-2--2-2-2--5--5-5--5-5-5-5-------------------------------|
A|0--0-0--0-0-0-2--2-2--2-2-2--5--5-5--5-5-5-5-------------------------------|
D|0--0-0--0-0-0-2--2-2--2-2-2--5--5-5--5-5-5-5-------------------------------|

Chorus
e|---------------------------------------------------------------------------|
B|---------------------------------------------------------------------------|
G|3--3-3--3-3----------------------------------------------------------------|
D|3--3-3--3-3-3--3-3--3-3--1--1-1--1-1--3--3-3--3-3--------------------------|
A|1--1-1--1-1-3--3-3--3-3--1--1-1--1-1--3--3-3--3-3--------------------------|
D|------------3--3-3--3-3--1--1-1--1-1--3--3-3--3-3--------------------------|

Outro
e|---------------------------------------------------------------------------|
B|---------------------------------------------------------------------------|
G|3-3-3---3-3-3---3-3-3---3-3-3---3-3-3--------------------------------------|
D|3-3-3---3-3-3---3-3-3---3-3-3---3-3-3--------------------------------------|
A|1-1-1---1-1-1---1-1-1---1-1-1---1-1-1--------------------------------------|
D|---------------------------------------------------------------------------|
Добавлено: 25.04.2016
Другие материалы по этой песне:
  • Аккорды и текст

Страница создана 25.04.2016
http://primanota.ru/misc-unsigned-bands/respectable-men-one-fifth-chords.htm
Привет, Гость.
Предлагаем пройти революционный курс по гитаре.
Подарок от PrimaNota.Ru, забирай!