PrimaNota.ru - самый крупный в мире бесплатный архив песенных текстов, аккордов, табулатур и нот


Misc Unsigned Bands - Respectale Men - Island - таба

Регистрация Запомнить меня
Войти через:  Facebook Google Twitter Vk Yandex Mail.ru

Misc Unsigned Bands - Respectale Men - Island - таба

Печатать
Просмотров: 83
Уроки эстрадного вокала в Санкт-Петербурге
-------------------------------------------------------------------------------
                            Island - Respectable Men
-------------------------------------------------------------------------------
Tabbed by: Jack Higgins
E-mail: jackphiggins5@gmail.com

Tuning: E Standard

Note: Bridge is only tabbed for bass because there is on guitar part on the bridge.
The bass follows the guitar on the verse and chorus.

Intro Bass
G|---------------------------------------------------------------------------|
D|---------------------------------------------------------------------------|
A|---------7-5-3----------3-5---------7-5-3----------5-3---------------------|
E|0-0-3-0--------0-0-3-0------0-0-3-0-------0-0-3-0--------------------------|

Intro Full (with bass continuing the same riff in the background)
e|---------------------------------------------------------------------------|
B|---------------------------------------------------------------------------|
G|---------9-7-5----------5-7----------9-7-5----------7-5--------------------|
D|---------9-7-5----------5-7----------9-7-5----------7-5--------------------|
A|2-2-2-2--7-5-3-2-2-2-2--3-5-2-2-2-2--7-5-3-2-2-2-2--5-3--------------------|
E|0-0-3-0--------0-0-3-0------0-0-3-0--------0-0-3-0-------------------------|

Verse
e|---------------------------------------------------------------------------|
B|---------------------------------------------------------------------------|
G|---------------------------------------------------------------------------|
D|2--2--2--2-2-6--6--6--6-6-3--3--3--3-3-5--5--4--4--------------------------|
A|2--2--2--2-2-6--6--6--6-6-3--3--3--3-3-5--5--4--4--------------------------|
E|0--0--0--0-0-4--4--4--4-4-1--1--1--1-1-3--3--2--2--------------------------|

Chorus
e|---------------------------------------------------------------------------|
B|---------------------------------------------------------------------------|
G|--------5--5-5-5--5-5-7--7--7-7--------------------------------------------|
D|7--7--7-5--5-5-5--5-5-7--7--7-7-7--7-7--7--7-------------------------------|
A|7--7--7-3--3-3-3--3-3-5--5--5-5-7--7-7--7--7-------------------------------|
E|5--5--5-------------------------5--5-5--5--5-------------------------------|

Bridge
G|---------------------------------------------------------------------------|
D|---------------------------------------------------------------------------|
A|---------------------------------------------------------------------------|
E|0------------4------------1-------------3-----2----------------------------|


Intro Bass x2
Intro Full Band x2
Verse x6
Chorus x4
Verse x6
Chorus x4
Bridge x6
Chorus x8
Добавлено: 25.04.2016
Другие материалы по этой песне:
  • Аккорды и текст

Страница создана 25.04.2016
http://primanota.ru/misc-unsigned-bands/respectale-men-island-chords.htm
Привет, Гость.
Предлагаем пройти революционный курс по гитаре.
Подарок от PrimaNota.Ru, забирай!