PrimaNota.ru - самый крупный в мире бесплатный архив песенных текстов, аккордов, табулатур и нот


Misc Unsigned Bands - Raybaboon - Our Love Remains - таба

Регистрация Запомнить меня
Войти через:  Facebook Google Twitter Vk Yandex Mail.ru

Misc Unsigned Bands - Raybaboon - Our Love Remains - таба

Печатать
Просмотров: 146
Уроки эстрадного вокала в Санкт-Петербурге
-------------------------------------------------------------------------------
                             Our Love Remains - Raybaboon
-------------------------------------------------------------------------------


Tuning:Standard

Intro
e|---------------------------------------------------------------------------|
B|---------------------------------------0-------0-------0-------0-------0---|
G|-------0-------0-------0-------0-----2-------2-------2-------2-------2-----|
D|-----4-------4-------4-------4---------------------------------------------| X6
A|---------------------------------3-3-----3-3-----3-3-----3-3-----3-3-------|
E|-3-3-----3-3-----3-3-----3-3-----------------------------------------------|

"'Cause on days like these..."
  Play the first part 4 times and add the second part at the end of the 4th time through.
e|---------------------------------|-------------------------------------------------|
B|-------0-------0-----------------|-----------------------0-------0-------0--------0|
G|-----2-----------------0-------0-|-------0-------0-----2-------2-------2--------2--|
D|-------------4-------4-------4---|-----4-------4-----------------------------------|
A|-3-3-----5-5---------------------|-----------------3-3-----3-3-----3-3------3-3----|
E|-----------------3-3-----3-3-----|-3-3-----3-3-------------------------------------|

"...how much we change..."
e|-------------------------------------------------------------------------------------------------|
B|---------------0-------0-------0-----------------------------------------------------------------|
G|---------------------------------------4-------4-------4-------4-------5-------5-------5-------5-|
D|-------------4-------4-------4-------5-------5-------5-------5-------5-------5-------5-------5---|
A|-5-5-----5-5-----5-5-----5-5-----7-7-----7-7-----7-7-----7-7-----6-6-----6-6-----6-6-----6-6-----|
E|-------------------------------------------------------------------------------------------------|

"Our love..."
e|---------------------------------------------------------|
B|-------0-------0-------0-------0-------0-------0---------|
G|---------------------------------------------------------|
D|-----4-------4-------4-------4-------5-------5-----------|
A|-5-5-----5-5-----5-5-----5-5-----3-3-----3-3-----3-------|
E|---------------------------------------------------------|

"...remains."
Ritardando when you play the last half the second time.
e|---------------------------------------------------------------------------|
B|---------------------------------------0-------0-------0-------0-------0---|
G|-------0-------0-------0-------0-----2-------2-------2-------2-------2-----|
D|-----4-------4-------4-------4---------------------------------------------| X2
A|---------------------------------3-3-----3-3-----3-3-----3-3-----3-3-------|
E|-3-3-----3-3-----3-3-----3-3-----------------------------------------------|

End on this
e|---------------------------------------------------------------------------|
B|---------------------------------------------------------------------------|
G|---------------------------------------------------------------------------|
D|---------------------------------------------------------------------------|
A|---------------------------------------------------------------------------|
E|-3-------------------------------------------------------------------------
Добавлено: 25.04.2016
Другие материалы по этой песне:
  • Аккорды и текст

Страница создана 25.04.2016
http://primanota.ru/misc-unsigned-bands/raybaboon-our-love-remains-chords.htm
Привет, Гость.
Предлагаем пройти революционный курс по гитаре.
Подарок от PrimaNota.Ru, забирай!