PrimaNota.ru - самый крупный в мире бесплатный архив песенных текстов, аккордов, табулатур и нот


Misc Unsigned Bands - Repectable Men - Admirer - таба

Регистрация Запомнить меня
Войти через:  Facebook Google Twitter Vk Yandex Mail.ru

Misc Unsigned Bands - Repectable Men - Admirer - таба

Печатать
Просмотров: 56
-------------------------------------------------------------------------------
                            Admirer - Respectable Men
-------------------------------------------------------------------------------
Tabbed by:Jack Higgins
E-mail: jackphiggins5@gmail.com

Tuning: E Standard
Note: This song was written with only guitar, the lead should play intro if
the song is being played with two.
Also, the bass just follows the rhythm guitar.

Intro
e|----------------------------------------------------------------------------------|
B|----------------------------------------------------------------------------------|
G|----------------------------------------------------------------------------------|
D|----------------------------------------------------------------------------------|
A|------5-5--5--6-6--6-------6-6-6-6-6-5-5-5-5--------------------------------------|
E|6--6-----------------4---4--------------------------------------------------------|

Chorus
e|----------------------------------------------------------------------------------|
B|----------------------------------------------------------------------------------|
G|-------6-6--6--8-8-8--------8-8--8--6-6--6----------------------------------------|
D|8---8--6-6--6--8-8-8--6--6--8-8--8--6-6--6----------------------------------------|
A|8---8--4-4--4--6-6-6--6--6--6-6--6--4-4--4----------------------------------------|
E|6---6-----------------4--4--------------------------------------------------------|

Verse
e|----------------------------------------------------------------------------------|
B|----------------------------------------------------------------------------------|
G|----------------------------------------------------------------------------------|
D|3-3-3-3-3-5-5-6-6-6-6-6-6-6-6-----------------------------------------------------|
A|3-3-3-3-3-5-5-6-6-6-6-6-6-6-6-----------------------------------------------------|
E|1-1-1-1-1-3-3-4-4-4-4-4-4-4-4-----------------------------------------------------|

Bridge
e|----------------------------------------------------------------------------------|
B|----------------------------------------------------------------------------------|
G|----------------------------------------------------------------------------------|
D|6--6--6-6--6-6--6--6--4--4--4-4--4-4--4--4--11-11-11-11-11-11-11-11-6--6--6-6-6-6-|
A|6--6--6-6--6-6--6--6--4--4--4-4--4-4--4--4--11-11-11-11-11-11-11-11-6--6--6-6-6-6-|
E|4--4--4-4--4-4--4--4--2--2--2-2--2-2--2--2--9--9--9--9--9--9--9--9--4--4--4-4-4-4-|

End note

D 8
A 8
E 6

Intro x2
Chorus x2
Verse x4
Chorus x2
Verse x4
Chorus x2
Bridge x2
Chorus x4
Добавлено: 25.04.2016
Другие материалы по этой песне:
  • Аккорды и текст

Страница создана 25.04.2016
http://primanota.ru/misc-unsigned-bands/repectable-men-admirer-chords.htm
Привет, Гость.
Предлагаем пройти революционный курс по гитаре.
Подарок от PrimaNota.Ru, забирай!