PrimaNota.ru - самый крупный в мире бесплатный архив песенных текстов, аккордов, табулатур и нот


Misc Unsigned Bands - Redwood - Fat Chance - таба

Регистрация Запомнить меня
Войти через:  Facebook Google Twitter Vk Yandex Mail.ru

Misc Unsigned Bands - Redwood - Fat Chance - таба

Печатать
Просмотров: 71
Fat Chance by Redwood

On of my all time favourites. Been working on this for a while.

Intro (best bit... What a riff) - play x2

e|------------------------------------------------------|
B|------------------------------------------------------|
G|------------------------------------------------------|
D|------------------------------------------------------| 
A|------------------------------------------------------|
E|--------------------------------------------------7h8-|
A|--10h12-0-0-7h8-0-0-8h10-0--10h12-0-0-7h8-0-0-8h10----|
PM        . .     . .      .        . .     . . 

e|------------------------------------------------------|
B|-----------------------------------------------5*-----|
G|-----------------------------------------------5*-----| (<-natural harmonics)
D|-----------------------------------------------5*-----| 
A|------------------------------------------------------|
E|------------------------------------------------------|
A|--10h12-0-0-7h8-0-0-8h10-0--10h12-0-0-7h8-0-0---------|
PM        . .     . .      .        . .     . .


Verse

e|------------------------------------------------------|
B|------------------------------------------------------|
G|---555--5--5--5--5--5--55444--4--4--5--5///7--7-------|
D|---555--5--5--5--5--5--55555--5--5--5--5///7--7-------| 
A|------------------------------------------------------|
E|------------------------------------------------------|
A|------------------------------------------------------| x4
PM


Pre-chorus

Rhythm guitar:

e|------------------------------------------------------|
B|------------------------------------------------------|
G|------------------------------------------------------|
D|--5~-----5/7-----3~-----------------------------------| 
A|--5~-----5/7-----3~-----------------------------------|
E|--3~-----3/5-----1~-----------------------------------|
A|------------------------------------------------------| x4
PM

Lead Guitar:

e|------------------------------------------------------|
B|--5~-----5-5/----13~--13-------13---------------------|
G|--5~-----5-5/----12~-----12-------12------------------|
D|--5~-----5-5/----14~--------14-------14---------------| 
A|------------------------------------------------------|
E|------------------------------------------------------|
A|------------------------------------------------------| x4
PM


Chorus

Rhythm Guitar:

e|------------------------------------------------------------------|
B|------------------------------------------------------------------|
G|------------------------------------------------------------------|
D|------------------------------------------------------------------| 
A|-0~--------------3~----------------8~--------------5~------7---5--|
E|-0~--------------3~----------------8~--------------5~------7---5--|
A|-0~--------------3~----------------8~--------------5~------7---5--| x2
PM

Lead Guitar:

e|------------------------------------------------------------------|
B|-555-5-5-5-5-5-xx555-5-5-5-5-5-5-55666-6-6-6-6-6-66333-3-3-5~--3~-|
G|-222-2-2-2-2-2-xx555-5-5-5-5-5-5-55555-5-5-5-5-5-55222-2-2-4~--2~-| 
D|------------------------------------------------------------------|
A|------------------------------------------------------------------|
E|------------------------------------------------------------------|
A|------------------------------------------------------------------| x2
PM

After that, repeat the intro once and the verse, pre-chorus and chorus.


Bridge

Rhythm Guitar: (does this for pretty much the duration)

e|------------------------------------------------------|
B|------------------------------------------------------|
G|------------------------------------------------------|
D|------------------------------------------------------| 
A|------------------------------------------------------|
E|------------------------------------------------------|
A|-000-0-0-0-0-0-00000-0-0-0-0-0-00000-0-0-0-0-0--------| x lots
PM ... . . . . . ..... . . . . . ..... . . . . .
                 ^ 
                 Repeat from this point

Lead Guitar: (I think this is played by a banjo (?) in the song but guitar sounds fine)

e|------------------------------------------------------|
B|-10---------------------------------------------------|
G|----9-12-9-10-9-9-9-10-9-9-9-7-9----9-----------------|
D|---------------------------------10-------------------| 
A|------------------------------------------------------|
E|------------------------------------------------------|
A|------------------------------------------------------|
PM

e|------------------------------------------------------|
B|-10---------------------------------------------------|
G|----9-12-9-9-9-10-9-9-9-7-9-9-7-----------------------|
D|--------------------------------10-9-7~-----9h10------| 
A|------------------------------------------------------|
E|------------------------------------------------------|
A|------------------------------------------------------|
PM                                            . 

Then repeat the verse riff twice, before this variation:

e|------------------------------------------------------|
B|------------------------------------------------------|
G|---555-5-5-5-5-5-55444-4-4-4-4-4-44555-5-5-5-5-5-5-4--|
D|---555-5-5-5-5-5-55555-5-5-5-5-5-55333-3-3-3-3-3-3-2--| 
A|------------------------------------------------------|
E|------------------------------------------------------|
A|------------------------------------------------------|
PM

At which point the rhythm guitar does this for the last bar:

e|------------------------------------------------------|
B|------------------------------------------------------|
G|------------------------------------------------------|
D|---7~-------------5~---------------3~--------------2--| 
A|---7~-------------5~---------------3~--------------2--|
E|---5~-------------3~---------------1---------------0--|
A|------------------------------------------------------|
PM

Then repeat the chorus twice, before ending on:

e|---5-5-5-5-5-5-5-5-5-5--------------------------------|
B|---5-5-5-5-5-5-5-5-5-5--------------------------------|
G|---5-5-5-5-5-5-5-5-5-5--------------------------------|
D|------------------------------------------------------| 
A|------------------------------------------------------|
E|------------------------------------------------------|
A|------------------------------------------------------|
PM

C&C appreciated.
Добавлено: 25.04.2016
Другие материалы по этой песне:
  • Аккорды и текст

Страница создана 25.04.2016
http://primanota.ru/misc-unsigned-bands/redwood-fat-chance-chords.htm
Привет, Гость.
Предлагаем пройти революционный курс по гитаре.
Подарок от PrimaNota.Ru, забирай!