PrimaNota.ru - самый крупный в мире бесплатный архив песенных текстов, аккордов, табулатур и нот


Misc Unsigned Bands - Respectable Men - Handshake - таба

Регистрация Запомнить меня
Войти через:  Facebook Google Twitter Vk Yandex Mail.ru

Misc Unsigned Bands - Respectable Men - Handshake - таба

Печатать
Просмотров: 111
Уроки эстрадного вокала в Санкт-Петербурге
-------------------------------------------------------------------------------
                        Handshake - Respectable Men
-------------------------------------------------------------------------------
Tabbed by: Jack Higgins
E-mail: jackphiggins5@gmail.com

Tuning: E Standard
Note: Bass follows rhythm, except for the bridge, where the bass continuously
plays "A" (5th fret on the E string, or open a string - Respectable Men usually
plays it with 5th fret on the E string).
Also, there is no lead guitar on the bridge.
pm = palm mute
p = pull-off

Rhythm Guitar
Verse
e|----------------------------------------------------------------------------------------------------|
B|----------------------------------------------------------------------------------------------------|
G|----------------------------------------------------------------------------------------------------|
D|--------7--7--7-5--5--5-----------------7--7--7-5--5--5---------------------------------------------|
A|7--7--7-5--5--5-3--3--3-5--5--5-7--7--7-5--5--5-3--3--3-5--5--5-------------------------------------|
E|5--5--5-----------------3--3--3-5--5--5-----------------3--3--3-------------------------------------|
 (palm mute allof this)

Chorus p1
e|----------------------------------------------------------------------------------------------------|
B|----------------------------------------------------------------------------------------------------|
G|----------------------------------------------------------------------------------------------------|
D|2-2-2-2-2-2-2-2-6-6-6-7--7-7-7----------------------------------------------------------------------|
A|2-2-2-2-2-2-2-2-6-6-6-7--7-7-7----------------------------------------------------------------------|
E|0-0-0-0-0-0-0-0-4-4-4-5--5-5-5----------------------------------------------------------------------|

Chorus p2
e|----------------------------------------------------------------------------------------------------|
B|----------------------------------------------------------------------------------------------------|
G|----------------------------------------------------------------------------------------------------|
D|2-2-2-2-2-2-2-2-6--5--3-----------------------------------------------------------------------------|
A|2-2-2-2-2-2-2-2-6--5--3-----------------------------------------------------------------------------|
E|0-0-0-0-0-0-0-0-4--3--1-----------------------------------------------------------------------------|

Bridge
e|----------------------------------------------------------------------------------------------------|
B|----------------------------------------------------------------------------------------------------|
G|----------------------------------------------------------------------------------------------------|
D|7---------------7-----------------7--7-7-7-7-7-7-7-7-7-7-7-7-7-7------------------------------------|
A|7--7-7-7-7-7-7--7--7-7-7-7-7-7-7--7--7-7-7-7-7-7-7-7-7-7-7-7-7-7------------------------------------|
E|5--5-5-5-5-5-5--5--5-5-5-5-5-5-5--5--5-5-5-5-5-5-5-5-5-5-5-5-5-5------------------------------------|
     pmpmpmpmpmp     pmpmpmpmpmpmpm

Outro
e|----------------------------------------------------------------------------------------------------|
B|----------------------------------------------------------------------------------------------------|
G|----------------------------------------------------------------------------------------------------|
D|3---------------------------------------------------------------------------------------------------|
A|3---------------------------------------------------------------------------------------------------|
E|1---with some pick slides, open notes, harmonics, and screaming-------------------------------------|

Lead Guitar
Verse
e|----------------------------------------------------------------------------------------------------|
B|----------------------------------------------------------------------------------------------------|
G|----------------------------------------------------------------------------------------------------|
D|---5--7-5----------------------5--7-5----------------5--7-5-----------------------5--7-5-----------7|
A|0----------7--5--3--5--7-5--0----------7--5--3-----0----------7--5--3--5--7-5--0----------7--5--3--7|
E|-------p----------------------------------------3--------------------------------------------------5|

Chorus p1
e|----------------------------------------------------------------------------------------------------|
B|----------------------------------------------------------------------------------------------------|
G|----------------------------------------------------------------------------------------------------|
D|2-2-2-2-2-2-2-2-6-6-6-7--7-7-7----------------------------------------------------------------------|
A|2-2-2-2-2-2-2-2-6-6-6-7--7-7-7----------------------------------------------------------------------|
E|0-0-0-0-0-0-0-0-4-4-4-5--5-5-5----------------------------------------------------------------------|

Chorus p2
e|----------------------------------------------------------------------------------------------------|
B|----------------------------------------------------------------------------------------------------|
G|----------------------------------------------------------------------------------------------------|
D|2-2-2-2-2-2-2-2-6--5--3-----------------------------------------------------------------------------|
A|2-2-2-2-2-2-2-2-6--5--3-----------------------------------------------------------------------------|
E|0-0-0-0-0-0-0-0-4--3--1-----------------------------------------------------------------------------|

Verse Rhythm x10/Verse Lead x2
Chorus x1
Verse Rhythm x9/Verse Lead x2
Bridge
Chorus x2
Outro
Добавлено: 25.04.2016
Другие материалы по этой песне:
  • Аккорды и текст

Страница создана 25.04.2016
http://primanota.ru/misc-unsigned-bands/respectable-men-handshake-chords.htm
Привет, Гость.
Предлагаем пройти революционный курс по гитаре.
Подарок от PrimaNota.Ru, забирай!