PrimaNota.ru - самый крупный в мире бесплатный архив песенных текстов, аккордов, табулатур и нот


Misc Unsigned Bands - Pilot To Gunner - Barrio Superstarrio - бас-таба

Регистрация Запомнить меня
Войти через:  Facebook Google Twitter Vk Yandex Mail.ru

Misc Unsigned Bands - Pilot To Gunner - Barrio Superstarrio - бас-таба

Печатать
Просмотров: 54
Уроки эстрадного вокала в Санкт-Петербурге
Pilot to Gunner
Barrio Superstarrio
EADG

Intro - Drums & vocals, bass comes in at 0:12.

Verse
G|-------------------------------|
D|-------------------------------|
A|7777779999101010---------------|
E|----------------888888555557777|

Chorus - 0:21
G|-------------------------------|
D|-------------------------------|
A|7777779999101010---------------|
E|----------------888888555557777|

G|-------------------------------------|
D|-------------------------------------|
A|777777---5h79999101010---------------|
E|------5h7-------------888888555557777|

Verse - 0:43
G|-------|
D|-------|
A|7(Hold)|
E|-------|

0:53
G|-------------------------------|
D|-------------------------------|
A|7777779999101010---------------|
E|----------------888888555557777|

Chorus - 1:03
G|-------------------------------|
D|-------------------------------|
A|7777779999101010---------------|
E|----------------888888555557777|

G|-------------------------------------|
D|-------------------------------------|
A|777777---5h79999101010---------------|
E|------5h7-------------888888555557777|

Bridge - 1:23
G|-------------------------------|
D|-------------------------------|
A|7-55h7-55h7-55h7-55h7-55h7-55h7|
E|-------------------------------|

G|-----------------------|-------------------------------|
D|-----------------------|-------------------------------|
A|5-55-555-----757-(REST)|75-5-55-555----7557557557557---|X5
E|--------55555----------|-----------5555----------------|

Bass Solo - 1:58 (Continues from the bridge part seamlessly)

G|------------------------|This could be used at the end of the 6th time, or you could use-|
D|------------------------| dead notes just before the start of the last chorus------------|
A|7557557557-5-5-5555-----|----5h7---------------------------------------------------------|X6
E|-------------------55555|-5h7------------------------------------------------------------|

Last Chorus - 2:29
G|-------------------------------|
D|-------------------------------|
A|7777779999101010---------------|
E|----------------888888555557777|

G|------------------------------------------------------|
D|------------------------------------------------------|
A|777777---5h79999101010---------------75575575575575577|
E|------5h7-------------888888555557777-----------------|

This is a great song and if anyone has ever played Midnight Club 3 then you should 
remember this one ;)
Please rate and leave feedback!
Добавлено: 29.10.2013
Другие материалы по этой песне:
  • Аккорды и текст

Страница создана 29.10.2013
http://primanota.ru/misc-unsigned-bands/pilot-to-gunner-barrio-superstarrio-chords.htm
Привет, Гость.
Предлагаем пройти революционный курс по гитаре.
Подарок от PrimaNota.Ru, забирай!