PrimaNota.ru - самый крупный в мире бесплатный архив песенных текстов, аккордов, табулатур и нот


Misc Unsigned Bands - Rosy Likes Red - Close Your Eyes - бас-таба, видео

Регистрация Запомнить меня
Войти через:  Facebook Google Twitter Vk Yandex Mail.ru

Misc Unsigned Bands - Rosy Likes Red - Close Your Eyes - бас-таба, видео

Печатать
Просмотров: 44
Song: Close Your Eyes
Artist: Rosy Likes Red
Album: Things Left Unsaid
Instrument: Bass Guitar


G----------------------------------------------------------------------------|
D------------------------------------------------14-16p14h16-----------------|
A--------0~~-002---------0~~/12-------14----12-16-------------------14-------|
E-0~~-000---------0~~-000--------12-16----16-------------------12-16----16---|
  INTRO                          VERSE
G-----------------------------------------------------------------------------|
D----------------------------14-16p14h16--------------------------------------|
A-12-11-9-11-------14----12-16------------------12----12-12-11-11-9-9-11p9h11-|
E------------12-16----16-------------------12-16---16-------------------------|
       VERSE                               VERSE
G---------6666-88-99---------------9-----------------------------------------|
D------------------------------------9---------------------------------------|
A-4-4-4-4-------------2-2-2-2/-7777-----0-00--00-00--00-00--0~-4444-2222-----|
E----------------------------------------------------------------------------|
  PRE CHORUS
G---------6666-88-99---------------9-----------------------------------------|
D------------------------------------9---------------------------------------|
A-4-4-4-4-------------2-2-2-2/-7777-----0-00--00-00--00-00--0~-4-4-2-2-------|
E----------------------------------------------------------------------------|
  PRE CHORUS
G----------------------------------------------------------------------------|
D-----------4---------------7----9--------------4----------------------------|
A-7-7-4-h77---7-4-7----------7-7--11--7-7-4-h77---7-4-7----------------------|
E-------------------5-5-5-5-----------------------------55555555-4444-2222---|
   CHORUS
G----------------------------------------------------------------------------|
D-----------4---------------7----9--------------4----------------------------|
A-7-7-4-h77---7-4-7----------7-7--11--7-7-4-h77---7-4-7----------------------|
E-------------------5-5-5-5-----------------------------55555555-4444-2222---|
   CHORUS
G-----------------------------------------------------|-----------------------|
D-------------------14-16p14h16-----------------------|----------14--------14-|
A-------14----12-16-------------------14----12-11-9-11|----14-12-------14-12--|
E-12-16----16-------------------12-16----16-----------|-12----------12--------|
   VERSE2                                             "and we can make it..."

G----------------------------------------------------------------------------|
D----------14----------14----------14----------14----------14----------14----|
A----14-12-------14-12-------14-12-------14-12-------14-12-------14-12-------|
E-12----------12----------12----------12----------12----------12-------------|
   VERSE2
   PRE CHORUS
   CHORUS
G---------------------------------------------------|x2----------------------|
D---------------------------------------------------|x2----------------------|
A---------------------------------------7-------6---|x2----------------------|
E-9~-99~-99~--7~-77~-77~-5~-55~-55~-444--4~-444---4-|x2----------------------|
   BRIDGE
G----------------------------------------------------------------------------|
D----------------------------------------------------------------------------|
A--------------66-77--------------7777-66-44---------4444-66-22----7------6--|
E-9-9-9-9-9999-------7-7-7-7-7777------------5-5-5-5------------444-4~-444-4-|
BRIDGE


   VERSE (some improvising can be done now)
   Chorus (follow drum triplets when applicable)
Добавлено: 06.10.2013
Другие материалы по этой песне:
  • Аккорды и текст

Страница создана 06.10.2013
http://primanota.ru/misc-unsigned-bands/rosy-likes-red-close-your-eyes-chords.htm
Привет, Гость.
Предлагаем пройти революционный курс по гитаре.
Подарок от PrimaNota.Ru, забирай!