PrimaNota.ru - самый крупный в мире бесплатный архив песенных текстов, аккордов, табулатур и нот


Misc Unsigned Bands - Plunger - Hs - бас-таба

Регистрация Запомнить меня
Войти через:  Facebook Google Twitter Vk Yandex Mail.ru

Misc Unsigned Bands - Plunger - Hs - бас-таба

Печатать
Просмотров: 60
Уроки эстрадного вокала в Санкт-Петербурге
PLUNGER - H.S

G|-------------------------------------------------------------|
D|-5-5-5-5-5-5-------------------------------------------------|
A|-------------7-7-7-0-7-7-7-0-7-7-7-7-7-7-7-7-7-3-3-3-3-0-3-0-|
E|-------------------------------------------------------------|

G|---------------------9-9-9-9----------------------9----9----|
D|-5-5-5-5-5-5----------------------------------------10---10-|
A|-------------7-7-7-7---------7-7-7-7-7-7-7------------------|
E|-------------------------------------------8-8-8-8----------|

G|--------------------------------------------------9----9----|
D|-5-5-5-5-5-5----------------------------------------10---10-|
A|-------------7-7-7-7-7---7---7-7-7-7-7-7-7------------------|
E|-----------------------8---8---------------8-8-8-8----------|

G|--------------------------------------------------------------|
D|-5-5-5-5-5-5--------------------------------------10-10-10-10-|
A|-------------7-7-7-7-7---7---7-7-7-7-7-7-7--------------------|
E|-----------------------8---8---------------8-8-8-8------------|

G|--------------------------------------------------9----9----|
D|-5-5-5-5-5-5----------------------------------------10---10-|
A|-------------7-7-7-7-7---7---7-7-7-7-7-7-7------------------|
E|-----------------------8---8---------------8-8-8-8----------|

G|---------------------9-9-9-9----------------------9----9----|
D|-5-5-5-5-5-5----------------------------------------10---10-|
A|-------------7-7-7-7---------7-7-7-7-7-7-7------------------|
E|-------------------------------------------8-8-8-8----------|

G|-------------------------------14-14-14-12--------------|
D|-------------------------------------------15-----------|
A|-8-8-8-8-8-8-8--------------------------------15--------| x2
E|---------------8-8-8-8-8-8-8-8--------------------------|

G|-------------------------------------------------------------|
D|-5-5-5-5-5-5-------------------------------------------------|
A|-------------7-7-7-0-7-7-7-0-7-7-7-7-7-7-7-7-7-3-3-3-3-0-3-0-|
E|-------------------------------------------------------------|

G|--------------------------------------------------9----9----|
D|-5-5-5-5-5-5----------------------------------------10---10-|
A|-------------7-7-7-7-7-7-7-7-7-7-7-7-7-7-7------------------|
E|-------------------------------------------8-8-8-8----------|

G|--------------------------------------------------9----9----|
D|-5-5-5-5-5-5----------------------------------------10---10-|
A|-------------7-7-7-7-7---7---7-7-7-7-7-7-7------------------| x2
E|-----------------------8---8---------------8-8-8-8----------|

G|-------------------------------14-14-14-12--------------|
D|-------------------------------------------15-----------|
A|-8-8-8-8-8-8-8--------------------------------15--------| x2
E|---------------8-8-8-8-8-8-8-8--------------------------|

G|------------------------9----------------------------------12-12-12/14-|
D|-----------10--10----10---10----------------10-10----10----------------|
A|-8-8-8-8-8--------8----------8--10-10-10-10-------10----10-------------|
E|-----------------------------------------------------------------------|

G|-------------------14--1212-12-------14--12--------------------------|
D|---------7-7-7-----------------10-10------------15-14----14-15-14----|
A|-8-8-8-8-------8-8------------------------------------15----------15-|
E|---------------------------------------------------------------------|

G|---------------------------9--------------------------12-12-12-12-|
D|---10-10-10-10-10-------10---10----------10--------10-------------|
A|-8----------------8-8-8---------8----10------10-------------------|
E|------------------------------------------------------------------|

G|---14--12-------14--12--------14--12-----------------------|
D|--------------------------------------15-14----14-15-14----|
A|--------------------------15----------------15----------15-|
E|-----------------------------------------------------------|

G|---------------9----9-10-9-------12-12------------------------------|
D|----10--10--10---10--------10----------10-----10-----10--10------10-|
A|-8----------------------------10----------10------10---------10-----|
E|--------------------------------------------------------------------|

G|---14--12-------14--12-12-----14--12-----------------------|
D|--------------------------------------15-14----14-15-14----|
A|--------------------------15----------------15----------15-|
E|-----------------------------------------------------------|

G|------------------------9-----------12------------------------------|
D|-----------10--10----10---10----------------------------------------|
A|-8-8-8-8-8--------8----------8--10----------------------------------|
E|--------------------------------------------------------------------|

G|---14--12-------14--12--------14--12-----------------------|
D|--------------------------------------15-14----14-15-14----|
A|--------------------------15----------------15----------15-|
E|-----------------------------------------------------------|

G|------------------------------------------12--12--|
D|----10-10-10-----10-10-----10---------10----------|
A|-8------------8---------8-----10--10--------------|
E|--------------------------------------------------|

G|---14--12-------14--12-12-----14--12-----------------------|
D|--------------------------------------15-14----14-15-14----|
A|--------------------------15----------------15----------15-|
E|-----------------------------------------------------------|

G|-------------------------------|
D|-------------------------------|
A|-8-8-8-8-8-8-8-----------------| x3
E|---------------8-8-8-8-8-8-8-8-|

G|-------------------------------|
D|-------------------------------|
A|-8-8-8-8-8-8-8-----------------|
E|---------------8---------------|
 
Добавлено: 15.08.2013
Другие материалы по этой песне:
  • Аккорды и текст

Страница создана 15.08.2013
http://primanota.ru/misc-unsigned-bands/plunger-hs-chords.htm
Привет, Гость.
Предлагаем пройти революционный курс по гитаре.
Подарок от PrimaNota.Ru, забирай!