PrimaNota.ru - самый крупный в мире бесплатный архив песенных текстов, аккордов, табулатур и нот


Misc Unsigned Bands - Post Apocalyptic - Cool Bass Riff - бас-таба

Регистрация Запомнить меня
Войти через:  Facebook Google Twitter Vk Yandex Mail.ru

Misc Unsigned Bands - Post Apocalyptic - Cool Bass Riff - бас-таба

Печатать
Просмотров: 64
Cool Bass Riff
By: The Infected Cows { ~ = hold note ]
Tuning: Standard




G|--------------------------------|
D|-----------1-3------------------|X4]
A|--------3-----------------------|
E|--1~ ---------------------------|


G|------------1-3-----------------|
D|---------3----------------------|X2]
A|---1~ --------------------------|
E|--------------------------------|


G|--------------------------------|
D|-----------1-3------------------|X2]
A|--------3-----------------------|
E|--1~ ---------------------------|


G|------------1-3-----------------|
D|---------3----------------------|X2]
A|---1~ --------------------------|
E|--------------------------------|


G|-------------------------------------|
D|-------------------------------------|
A|--3~ ---2-1~ ------------------------|X1, Then Repeat all]
E|-------------------------------------|
Добавлено: 08.10.2013
Другие материалы по этой песне:
  • Аккорды и текст

Страница создана 08.10.2013
http://primanota.ru/misc-unsigned-bands/post-apocalyptic-cool-bass-riff-chords.htm
Привет, Гость.
Предлагаем пройти революционный курс по гитаре.
Подарок от PrimaNota.Ru, забирай!