PrimaNota.ru - самый крупный в мире бесплатный архив песенных текстов, аккордов, табулатур и нот


Misc Unsigned Bands - Poni Hoax - Antibodies - бас-таба

Регистрация Запомнить меня
Войти через:  Facebook Google Twitter Vk Yandex Mail.ru

Misc Unsigned Bands - Poni Hoax - Antibodies - бас-таба

Печатать
Просмотров: 38
Tabbed by: SKRippon
E-mail: SKRippon@hotmail.com

Amazing song, wish someone had put up the tabs earlier.
Anyways heres what I worked out by listening and playing along a few times,
may not be perfect but it's definitely a good start.

***Just assume hammer ons for everything but the chorus***

Intro

|------------------| x3 then fill     |-------------------------|
|------------------|                  |-3--4------1--3----------|
|-4-6-4-6-4-6-4-6--|                  |------4--6------3--4--6--|
|------------------|                  |-------------------------|

Verse

|---------------------------------------------|
|---------------------------------------------|
|-4-6-4-6-4-6-4-6-4-6--3-4-3-4-3-4-3-4-3-4----|
|---------------------------------------------|

|--------------------------------------------|
|----------------------1-3-1-3-1-3-1-3-1-3---|
|-4-6-4-6-4-6-4-6-4-6------------------------|
|--------------------------------------------|

|---------------------------------------------|
|-3-4-3-4-3-4-3-4-3-4--1-3-1-3-1-3-1-3-1-3----|
|---------------------------------------------|
|---------------------------------------------|

|---------------------------------------------|
|-----------------------3-4-----1-3-----------|
|-4-6-4-6-4-6-4-6-4-6------4-6------3-4-6-----|
|---------------------------------------------|

Repeat that until the chorus

Chorus

|-------------------------|
|-------------------------|
|-6--4~~~--6--4-----------|
|-----------------4~~~~~--|

Verse
Chorus

Outro

|-------------------|  x like 1000000
|-3-4-----1-3-------|
|-----4-6-----3-4-6-|
|-------------------|

Hope this helps you guys out!  And for anyone having trouble with that fill/outro, 
it can all be played on the A string as

|-----------------------------|
|-----------------------------|
|-8--9--4--6--6--8--3--4--6---|
|-----------------------------|
Добавлено: 23.06.2013
Другие материалы по этой песне:
  • Аккорды и текст

Страница создана 23.06.2013
http://primanota.ru/misc-unsigned-bands/poni-hoax-antibodies-chords.htm
Привет, Гость.
Предлагаем пройти революционный курс по гитаре.
Подарок от PrimaNota.Ru, забирай!