PrimaNota.ru - самый крупный в мире бесплатный архив песенных текстов, аккордов, табулатур и нот


Misc Unsigned Bands - Sacred Affliction - Never Let It Go - бас-таба

Регистрация Запомнить меня
Войти через:  Facebook Google Twitter Vk Yandex Mail.ru

Misc Unsigned Bands - Sacred Affliction - Never Let It Go - бас-таба

Печатать
Просмотров: 44
Never let it go - Sacred Affliction
(Demo Version)
Tuning: Drop D (DADG)

Intro:
G---------------------------------------------------------------------------|
D---------------------------------------------------------------------------|
A---2-2-----------------------2-2~------------------------------------------|
D---------------5-5----7-7-----------------5-5~---7-7~----------------------|(2x)

Riff 1: 4x
G---------------------------------------------------------------------------|
D---------------------------------------------------------------------------|
A-2-2-2-2-2-2-2-2-2-2-2-2-2-2-2-2-------------------------------------------|
D---------------------------------5-5-5-5-5-5-5-5-5-5-7-7-7-7-7-7-7-7-7-7---|

Verse 1: 4x
G---------------------------------------------------------------------------|
D---------------------------------------------------------------------------|
A-2-2-2-2-2-2-2-2-2-2-2-2-2-2-2-2-2-2-2-2-2-2-2-2-2-2-2-2-2-2-2-2-----------|
D---------------------------------------------------------------------------|

G---------------------------------------------------------------------------|
D---------------------------------------------------------------------------|
A---------------------------------------------------------------------------|
D-5-5-5-5-5-5-5-5-5-5-5-5-5-5-5-5-7-7-7-7-7-7-7-7-7-7-7-7-7-7-7-7-----------|

Pre-Chorus 2x
G---------------------------------------------------------------------------|
D---------------------------------------------------------------------------|
A-2-2-2-2-2-2-2-2-2-2-2-2-2-2-2-2-2-2-2-2-2-2-2-2-2-2-2-2-2-2-2-2-----------|
D---------------------------------------------------------------------------|

G---------------------------------------------------------------------------|
D---------------------------------------------------------------------------|
A---------------------------------------------------------------------------|
D-5-5-5-5-5-5-5-5-5-5-5-5-5-5-5-5-7-7-7-7-7-7-7-7-7-7-7-7-7-7-7-7-----------|

Chorus 
G---------------------------------------------------------------------------|
D---------------------------------------------------------------------------|
A-7-7-7-7-5-5-5-0-2-2-2-2-0-0-0-0-7-7-7-7-5-5-5-0-2-2-2-2-------------------|
D---------------------------------------------------------4-4-4-4-----------|

G---------------------------------------------------------------------------|
D---------------------------------------------------------------------------|
A-7-7-7-7-5-5-5-0-2-2-2-2-0-0-0-0-7-7-7-7-5-5-5-0-2-2-2-2-2-2-2-2-----------|
D---------------------------------------------------------------------------|

Riff 1: 2x
G---------------------------------------------------------------------------|
D---------------------------------------------------------------------------|
A-2-2-2-2-2-2-2-2-2-2-2-2-2-2-2-2-------------------------------------------|
D---------------------------------5-5-5-5-5-5-5-5-5-5-7-7-7-7-7-7-7-7-7-7---|

Verse 2: 2x
G---------------------------------------------------------------------------|
D---------------------------------------------------------------------------|
A-2-2-2-2-2-2-2-2-2-2-2-2-2-2-2-2-2-2-2-2-2-2-2-2-2-2-2-2-2-2-2-2-----------|
D---------------------------------------------------------------------------|

G---------------------------------------------------------------------------|
D---------------------------------------------------------------------------|
A---------------------------------------------------------------------------|
D-5-5-5-5-5-5-5-5-5-5-5-5-5-5-5-5-7-7-7-7-7-7-7-7-7-7-7-7-7-7-7-7-----------|

Pre-Chorus 2x
G---------------------------------------------------------------------------|
D---------------------------------------------------------------------------|
A-2-2-2-2-2-2-2-2-2-2-2-2-2-2-2-2-2-2-2-2-2-2-2-2-2-2-2-2-2-2-2-2-----------|
D---------------------------------------------------------------------------|

G---------------------------------------------------------------------------|
D---------------------------------------------------------------------------|
A---------------------------------------------------------------------------|
D-5-5-5-5-5-5-5-5-5-5-5-5-5-5-5-5-7-7-7-7-7-7-7-7-7-7-7-7-7-7-7-7-----------|

Chorus 
G---------------------------------------------------------------------------|
D---------------------------------------------------------------------------|
A-7-7-7-7-5-5-5-0-2-2-2-2-0-0-0-0-7-7-7-7-5-5-5-0-2-2-2-2-------------------|
D---------------------------------------------------------4-4-4-4-----------|

G---------------------------------------------------------------------------|
D---------------------------------------------------------------------------|
A-7-7-7-7-5-5-5-0-2-2-2-2-0-0-0-0-7-7-7-7-5-5-5-0-2-2-2-2-2-2-2-2-----------|
D---------------------------------------------------------------------------|

Bridge: 2x
G---------------------------------------------------------------------------|
D---------------------------------------------------------------------------|
A-2~------------0~------------2~------------5~----4~------------------------|
D---------------------------------------------------------------------------|

Bridge 2:
G---------------------------------------------------------------------------|
D---------------------------------------------------------------------------|
A-2-2-2-2-2-2-2-2-2-2-2-2-2-2-2-2-------------------------------------------|
D---------------------------------2-2-2-2-2-2-2-2-2-2-2-2-2-2-2-2-----------|

G---------------------------------------------------------------------------|
D---------------------------------------------------------------------------|
A-2-2-2-2-2-2-2-2-2-2-2-2-2-2-2-2-------------------------------------------|
D---------------------------------0-0-0-0-0-0-0-0-0-0-0-0-0-0-0-0-----------|

Pre-Solo: 2x
G---------------------------------------------------------------------------|
D---------------------------------------------------------------------------|
A-2-2-2-2-2-2-2-2-2-2-2-2-2-2-2-2-0-0-0-0-0-0-0-0-0-0-0-0-0-0-0-0-----------|
D---------------------------------------------------------------------------|

G---------------------------------------------------------------------------|
D---------------------------------------------------------------------------|
A---------------------------------0-0-0-0-0-0-0-0-1-1-1-1-1-1-1-1-----------|
D-5-5-5-5-5-5-5-5-5-5-5-5-5-5-5-5-------------------------------------------|

Solo: 2x
G---------------------------------------------------------------------------|
D---------------------------------------------------------------------------|
A-2-2-2-2-2-2-2-2-2-2-2-2-2-2-2-2-0-0-0-0-0-0-0-0-0-0-0-0-0-0-0-0-----------|
D---------------------------------------------------------------------------|

G---------------------------------------------------------------------------|
D---------------------------------------------------------------------------|
A---------------------------------0-0-0-0-0-0-0-0-1-1-1-1-1-1-1-1-----------|
D-5-5-5-5-5-5-5-5-5-5-5-5-5-5-5-5-------------------------------------------|

Chorus 
G---------------------------------------------------------------------------|
D---------------------------------------------------------------------------|
A-7-7-7-7-5-5-5-0-2-2-2-2-0-0-0-0-7-7-7-7-5-5-5-0-2-2-2-2-------------------|
D---------------------------------------------------------4-4-4-4-----------|

G---------------------------------------------------------------------------|
D---------------------------------------------------------------------------|
A-7-7-7-7-5-5-5-0-2-2-2-2-0-0-0-0-7-7-7-7-5-5-5-0-2-2-2-2-2-2-2-2-----------|
D---------------------------------------------------------------------------|

Riff 1: 4x
G---------------------------------------------------------------------------|
D---------------------------------------------------------------------------|
A-2-2-2-2-2-2-2-2-2-2-2-2-2-2-2-2-------------------------------------------|
D---------------------------------5-5-5-5-5-5-5-5-5-5-7-7-7-7-7-7-7-7-7-7---|

End:
G---------------------------------------------------------------------------|
D---------------------------------------------------------------------------|
A-2-2-2-2--2--2-2~----------------------------------------------------------|
D---------------------------------------------------------------------------|

Добавлено: 17.10.2013
Другие материалы по этой песне:
  • Аккорды и текст

Страница создана 17.10.2013
http://primanota.ru/misc-unsigned-bands/sacred-affliction-never-let-it-go-chords.htm
Привет, Гость.
Предлагаем пройти революционный курс по гитаре.
Подарок от PrimaNota.Ru, забирай!