PrimaNota.ru - самый крупный в мире бесплатный архив песенных текстов, аккордов, табулатур и нот


Misc Unsigned Bands - Phoenix - The Drake Equation - таба

Регистрация Запомнить меня
Войти через:  Facebook Google Twitter Vk Yandex Mail.ru

Misc Unsigned Bands - Phoenix - The Drake Equation - таба

Печатать
Просмотров: 49
-------------------------------------------------------------------------------
                             The Drake Equation- Phoenix

Here is a link to my guitar video on youtube.

https://www.youtube.com/watch?v=_DA9CdXT0gQ

And here is our music video for the song.  

https://www.youtube.com/watch?v=XeGveOBJS5E
-------------------------------------------------------------------------------

This is a song by my band The Drake Equation. 
It was released early this year and has an oriental touch to it. Enjoy!

Tabbed by: Mattias Tiselius
E-mail: mattias_metal@msn.com

Tuning: Drop A

Intro: Comp Guitar 

e|---------------------------------------------------------------------------|
B|---------------------------------------------------------------------------|
G|---------------------------------------------------------------------------|
D|---------------------------------------------------------------------------|
A|---------------------------------------------------------------------------|
E|-0--0-0-0--0-0-0--0-0-0--0--0-0-0--1-1-1--4-4-4--0--0-0-0--0-0-0--0-0-0----|

e|---------------------------------------------------------------------------|
B|---------------------------------------------------------------------------|
G|-----------5-5-5-5--5-5----------------------------------------------------|
D|-----------5-5-5-5--5-5----------------------------------------------------|
A|-----------6-6-6-6--6-6----------------------------------------------------|
E|-0--0-0-0------------------------------------------------------------------|

Intro: Lead Guitar

e|---------------------------------------------------------------------------|
B|-10H11P10S8-7--------------------------------------------------------------|
G|-----------------7H8P7S5-7-8--7H8P7S5-7-8-7-7-7-11-11-11-------------------|
D|---------------------------------------------------------------------------|
A|---------------------------------------------------------------------------|
E|---------------------------------------------------------------------------|

e|------------------------------------------8-8-8-8H11-11-11-----------------|
B|-10H11P10S8-7--------------------------------------------------------------|
G|-----------------7H8P7S5-7-8--7H8P7S5-7-8----------------------------------|
D|---------------------------------------------------------------------------|
A|---------------------------------------------------------------------------|
E|---------------------------------------------------------------------------|

Intro: Lead Guitar 2(begins on the second half of the intro riff)

e|---------------------------------------------------------------------------|
B|---------------------------------------------------------------------------|
G|---------------------------------------------------------------------------|
D|-7H8P7S5-4-----------------------------------------------------------------|
A|-----------5H6P5S3-5-6--5H6P5S3-5-6--5-5-5-9-9-9---------------------------|
E|---------------------------------------------------------------------------|

e|---------------------------------------------------------------------------|
B|---------------------------------------------------------------------------|
G|-------------------------------------5-5-5-5H8-8-8-------------------------|
D|-7H8P7S5-4-----------------------------------------------------------------|
A|------------5H6P5S3-5-6--5H6P5S3-5-6---------------------------------------|
E|---------------------------------------------------------------------------|

Verse: Guitar 1

e|---------------------------------------------------------------------------|
B|---------------------------------7-----------------------------------------|
G|-----------------------------------8-7---3--2------------------------------|
D|-------4---------------------------------------5-4-------------------------|
A|---------6-5---3---3---3-5-------------------------------------------------|
E|-0-0-0-------0---0---0-----0-0-0-------0--0--0-----------------------------|

e|---------------------------------------------------------------------------|
B|---------------------------------------------------------------------------|
G|---------------------------------------------------------------------------|
D|-------4-------------------------------------------------------------------|
A|---------6-5---3---3---3-5-------------------------------------------------|
E|-0-0-0-------0---0---0-----1-1-1-5-5-5-4-4-4-8-8-8-7-7-5-5-----------------|

Verse: Guitar 2

e|---------------------------------------------------------------------------|
B|---------------------------------------------------------------------------|
G|---------------------------------------------------------------------------|
D|--------4-------------------------4----------------------------------------|
A|---------6-5---3---3---3-5---------6-5-------------------------------------|
E|-0-0-0-------0---0---0-----0-0-0--------0-8-0-7-0-5-4----------------------|

e|---------------------------------------------------------------------------|
B|---------------------------------------------------------------------------|
G|---------------------------------------------------------------------------|
D|-------4--------------------------1-1-1-5-5-5-4-4-4-8-8-8-7-7-5-5----------|
A|---------6-5---3---3---3-5-------------------------------------------------|
E|-0-0-0-------0---0---0-----0-0-0-------------------------------------------|

chorus: Comp Guitar

e|-------------------------------------------------------------------------------|
B|-----------------------------------------------------------------------harmonic|
G|-7-7-7-7-7--7-7----5--5-5-5--8-8-8--7-7-7-7-7--7-7---5--5-5-5--8-8-7--(12-12-11|
D|-7-7-7-7-7--7-7----5--5-5-5--8-8-8--7-7-7-7-7--7-7---5--5-5-5------------------|
A|-5-5-5-5-5--6-6-x--3--3-3-3--6-6-6--5-5-5-5-5--6-6-x-3--3-3-3--6-6-5--(10-10-9-|
E|----------------x----------------------------------x---------------------------|

Chorus: Lead guitar

e|---------------------------------------------------------------------------|
B|-------------7----------------7-8-------------7----------------------------|
G|---------7-8--8-7---------7-8-------------7-8---8-7---------7-7H8P7---7----|
D|-5-7-7-8----------5-7-7-8---------5-7-7-8-----------5-7-7-8---------8------|
A|---------------------------------------------------------------------------|
E|---------------------------------------------------------------------------|

Stick: Comp Guitar 

e|---------------------------------------------------------------------------|
B|---------------------------------------------------------------------------|
G|---------------------------------------------------------------------------|
D|---------------------------------------------------------------------------|
A|---------------------------------------------------------------------------|
E|-0--0-0-0--0-0-0--0-0-0--0--0-0-0--1-1-1--4-4-4--0--0-0-0--0-0-0--0-0-0----|

e|---------------------------------------------------------------------------|
B|---------------------------------------------------------------------------|
G|-----------5-5-5-5--5-5----------------------------------------------------|
D|-----------5-5-5-5--5-5----------------------------------------------------|
A|-----------6-6-6-6--6-6----------------------------------------------------|
E|-0--0-0-0------------------------------------------------------------------|

Stick: Lead Guitar

e|---------------------------------------------------------------------------|
B|-10H11P10S8-7--------------------------------------------------------------|
G|-----------------7H8P7S5-7-8--7H8P7S5-7-8-7-7-7-11-11-11-------------------|
D|---------------------------------------------------------------------------|
A|---------------------------------------------------------------------------|
E|---------------------------------------------------------------------------|

e|------------------------------------------8-8-8-8H11-11-11-----------------|
B|-10H11P10S8-7--------------------------------------------------------------|
G|-----------------7H8P7S5-7-8--7H8P7S5-7-8----------------------------------|
D|---------------------------------------------------------------------------|
A|---------------------------------------------------------------------------|
E|---------------------------------------------------------------------------|

Stick: Lead Guitar 2 (begins on the second half of the stick riff)

e|---------------------------------------------------------------------------|
B|---------------------------------------------------------------------------|
G|---------------------------------------------------------------------------|
D|-7H8P7S5-4-----------------------------------------------------------------|
A|-----------5H6P5S3-5-6--5H6P5S3-5-6--5-5-5-9-9-9---------------------------|
E|---------------------------------------------------------------------------|

e|---------------------------------------------------------------------------|
B|---------------------------------------------------------------------------|
G|-------------------------------------5-5-5-5H8-8-8-------------------------|
D|-7H8P7S5-4-----------------------------------------------------------------|
A|------------5H6P5S3-5-6--5H6P5S3-5-6---------------------------------------|
E|---------------------------------------------------------------------------|

Verse 2: Guitar 1

e|---------------------------------------------------------------------------|
B|---------------------------------7-----------------------------------------|
G|-----------------------------------8-7---3--2------------------------------|
D|-------4----------------------------------------5-4------------------------|
A|---------6-5---3---3---3-5-------------------------------------------------|
E|-0-0-0-------0---0---0-----0-0-0-------0--0---0----------------------------|

e|---------------------------------------------------------------------------|
B|---------------------------------------------------------------------------|
G|---------------------------------------------------------------------------|
D|-------4-------------------------------------------------------------------|
A|---------6-5---3---3---3-5-------------------------------------------------|
E|-0-0-0-------0---0---0-----1-1-1-5-5-5-4-4-4-8-8-8-7-7-5-5-----------------|

Verse 2: Guitar 2

e|---------------------------------------------------------------------------|
B|---------------------------------------------------------------------------|
G|---------------------------------------------------------------------------|
D|--------4-------------------------4----------------------------------------|
A|---------6-5---3---3---3-5---------6-5-------------------------------------|
E|-0-0-0-------0---0---0-----0-0-0--------0-8-0-7-0-5-4----------------------|

e|---------------------------------------------------------------------------|
B|---------------------------------------------------------------------------|
G|---------------------------------------------------------------------------|
D|-------4--------------------------1-1-1-5-5-5-4-4-4-8-8-8-7-7-5-5----------|
A|---------6-5---3---3---3-5-------------------------------------------------|
E|-0-0-0-------0---0---0-----0-0-0-------------------------------------------|

Verse 2: Solo on the other half of verse 2

e|-14H15P14----14----------------------14-15-17-15---------------------------|
B|----------16----16-15-16-15-13-15-16---------------------------------------|
G|---------------------------------------------------------------------------|
D|---------------------------------------------------------------------------|
A|---------------------------------------------------------------------------|
E|---------------------------------------------------------------------------|

e|-14H15P14----14----------------------14-15-17-15---------------------------|
B|----------16----16-15-16-15-13-15-16---------------------------------------|
G|---------------------------------------------------------------------------|
D|---------------------------------------------------------------------------|
A|---------------------------------------------------------------------------|
E|---------------------------------------------------------------------------|

e|-14H15P14----14----------------------14-15-17-15-14-14-14-15-15-15-17-17-17|
B|----------16----16-15-16-15-13-15-16---------------------------------------|
G|---------------------------------------------------------------------------|
D|---------------------------------------------------------------------------|
A|---------------------------------------------------------------------------|
E|---------------------------------------------------------------------------|

e|-18-18-18-20---------------------------------------------------------------|
B|---------------------------------------------------------------------------|
G|---------------------------------------------------------------------------|
D|---------------------------------------------------------------------------|
A|---------------------------------------------------------------------------|
E|---------------------------------------------------------------------------|


chorus 2: Comp Guitar

e|-------------------------------------------------------------------------------|
B|-----------------------------------------------------------------------harmonic|
G|-7-7-7-7-7--7-7----5--5-5-5--8-8-8--7-7-7-7-7--7-7---5--5-5-5--8-8-7--(12-12-11|
D|-7-7-7-7-7--7-7----5--5-5-5--8-8-8--7-7-7-7-7--7-7---5--5-5-5------------------|
A|-5-5-5-5-5--6-6-x--3--3-3-3--6-6-6--5-5-5-5-5--6-6-x-3--3-3-3--6-6-5--(10-10-9-|
E|----------------x----------------------------------x---------------------------|


Chorus 2: Lead guitar

e|---------------------------------------------------------------------------|
B|-------------7----------------7-8-------------7----------------------------|
G|---------7-8--8-7---------7-8-------------7-8---8-7---------7-7H8P7---7----|
D|-5-7-7-8----------5-7-7-8---------5-7-7-8-----------5-7-7-8---------8------|
A|---------------------------------------------------------------------------|
E|---------------------------------------------------------------------------|

Bridge: Guitar

e|-------------------------------------------------------------------------------|
B|-----------------------------------------------------------------------harmonic|
G|-7-7-7-7-7--7-7----5--5-5-5--8-8-8--7-7-7-7-7--7-7---5--5-5-5--8-8-7--(12-12-11|
D|-7-7-7-7-7--7-7----5--5-5-5--8-8-8--7-7-7-7-7--7-7---5--5-5-5------------------|
A|-5-5-5-5-5--6-6-x--3--3-3-3--6-6-6--5-5-5-5-5--6-6-x-3--3-3-3--6-6-5--(10-10-9-|
E|----------------x----------------------------------x---------------------------|


chorus 3: Comp Guitar

e|-------------------------------------------------------------------------------|
B|-----------------------------------------------------------------------harmonic|
G|-7-7-7-7-7--7-7----5--5-5-5--8-8-8--7-7-7-7-7--7-7---5--5-5-5--8-8-7--(12-12-11|
D|-7-7-7-7-7--7-7----5--5-5-5--8-8-8--7-7-7-7-7--7-7---5--5-5-5------------------|
A|-5-5-5-5-5--6-6-x--3--3-3-3--6-6-6--5-5-5-5-5--6-6-x-3--3-3-3--6-6-5--(10-10-9-|
E|----------------x----------------------------------x---------------------------|

Chorus 3: Lead guitar

e|---------------------------------------------------------------------------|
B|-------------7----------------7-8-------------7----------------------------|
G|---------7-8--8-7---------7-8-------------7-8---8-7---------7-7H8P7---7----|
D|-5-7-7-8----------5-7-7-8---------5-7-7-8-----------5-7-7-8---------8------|
A|---------------------------------------------------------------------------|
E|---------------------------------------------------------------------------|


Stick 2: Guitar

e|----------------------------------(Harmonics----------------------------------)|
B|-7S8S7S8S7S8S7S8S7S8S7S8S7S8S7S8-10S11S10S11S10S11S10S11S10S11S10S11S10S11S1011|
G|-------------------------------------------------------------------------------|
D|-------------------------------------------------------------------------------|
A|-------------------------------------------------------------------------------|
E|-------------------------------------------------------------------------------|

Outro: Comp Guitar 

e|---------------------------------------------------------------------------|
B|---------------------------------------------------------------------------|
G|---------------------------------------------------------------------------|
D|---------------------------------------------------------------------------|
A|---------------------------------------------------------------------------|
E|-0--0-0-0--0-0-0--0-0-0--0--0-0-0--1-1-1--4-4-4--0--0-0-0--0-0-0--0-0-0----|

e|---------------------------------------------------------------------------|
B|---------------------------------------------------------------------------|
G|-----------5-5-5-5--5-5----------------------------------------------------|
D|-----------5-5-5-5--5-5----------------------------------------------------|
A|-----------6-6-6-6--6-6----------------------------------------------------|
E|-0--0-0-0------------------------------------------------------------------|

Outro: Lead Guitar

e|---------------------------------------------------------------------------|
B|-10H11P10S8-7--------------------------------------------------------------|
G|-----------------7H8P7S5-7-8--7H8P7S5-7-8-7-7-7-11-11-11-------------------|
D|---------------------------------------------------------------------------|
A|---------------------------------------------------------------------------|
E|---------------------------------------------------------------------------|

e|------------------------------------------8-8-8-8H11-11-11-----------------|
B|-10H11P10S8-7--------------------------------------------------------------|
G|-----------------7H8P7S5-7-8--7H8P7S5-7-8----------------------------------|
D|---------------------------------------------------------------------------|
A|---------------------------------------------------------------------------|
E|---------------------------------------------------------------------------|

Outro: Lead Guitar 2 (begins on the second half of the outro riff)


e|---------------------------------------------------------------------------|
B|---------------------------------------------------------------------------|
G|---------------------------------------------------------------------------|
D|-7H8P7S5-4-----------------------------------------------------------------|
A|-----------5H6P5S3-5-6--5H6P5S3-5-6--5-5-5-9-9-9---------------------------|
E|---------------------------------------------------------------------------|

e|---------------------------------------------------------------------------|
B|---------------------------------------------------------------------------|
G|-------------------------------------5-5-5-5H8-8-8-------------------------|
D|-7H8P7S5-4-----------------------------------------------------------------|
A|------------5H6P5S3-5-6--5H6P5S3-5-6---------------------------------------|
E|---------------------------------------------------------------------------|

Добавлено: 19.10.2015
Другие материалы по этой песне:
  • Аккорды и текст

Страница создана 19.10.2015
http://primanota.ru/misc-unsigned-bands/phoenix-drake-equation-chords.htm
Привет, Гость.
Предлагаем пройти революционный курс по гитаре.
Подарок от PrimaNota.Ru, забирай!