PrimaNota.ru - самый крупный в мире бесплатный архив песенных текстов, аккордов, табулатур и нот


Misc Unsigned Bands - Reborn - Sample 2 - таба

Регистрация Запомнить меня
Войти через:  Facebook Google Twitter Vk Yandex Mail.ru

Misc Unsigned Bands - Reborn - Sample 2 - таба

Печатать
Просмотров: 33
-------------------------------------------------------------------------------
                             Sample 2 - Reborn
-------------------------------------------------------------------------------
Tabbed by: RedBy
E-mail:

Tuning: Drop D

Intro Part 1/3

Intro part 1(X2)
e|----------------------------------|
B|----------------------------------|
G|----------------------------------|
D|--0--9-10-12--0--9-10-12----------|
A|--0--9-10-12--0--9-10-12----------|
D|--0--9-10-12--0--9-10-12----------|

Intro part 2(x3)                      |Intro parte 2 Final(x1)
e|------------------------------------|----------------------|
B|------------------------------------|----------------------|
G|------------------------------------|----------------------|
D|--0--9-10-12--0--9-10-12--0-0-0-----|-9-10-12__-9--10__----|
A|--0--9-10-12--0--9-10-12--0-0-0-----|-9-10-12__-9--10__----|
D|--0--9-10-12--0--9-10-12--0-0-0-----|-9-10-12__-9--10__----|

Intro parte 3(X3)            |Intro parte 3 final (X2)
e|---------------------------|--------------------------------|
B|---------------------------|--------------------------------|
G|---------------------------|--------------------------------|
D|--0-0-0-0-0--0-0--0-8-7-5--|--0-0-0-0-0--0-0----------------|
A|--0-0-0-0-0--0-0--0-8-7-5--|--0-0-0-0-0--0-0----------------|
E|--0-0-0-0-0--0-0--0-8-7-5--|--0-0-0-0-0--0-0----------------|

Falta :v



************************************

| /   slide up
| \   slide down
| h   hammer-on
| p   pull-off
| ~   vibrato
| +   harmonic
| x   Mute note
| b   Bend
| pb  Pre-bend
| br  Bend release
| pbr Pre-bend release
| brb Bend release bend

************************************
Добавлено: 19.10.2015
Другие материалы по этой песне:
  • Аккорды и текст

Страница создана 19.10.2015
http://primanota.ru/misc-unsigned-bands/reborn-sample-2-chords.htm
Привет, Гость.
Предлагаем пройти революционный курс по гитаре.
Подарок от PrimaNota.Ru, забирай!