PrimaNota.ru - самый крупный в мире бесплатный архив песенных текстов, аккордов, табулатур и нот


Misc Unsigned Bands - Rehearsal - No Regret - таба

Регистрация Запомнить меня
Войти через:  Facebook Google Twitter Vk Yandex Mail.ru

Misc Unsigned Bands - Rehearsal - No Regret - таба

Печатать
Просмотров: 62
-------------------------------------------------------------------------------
                           No Regret(edited) - unKnown
-------------------------------------------------------------------------------
Tabbed by: forbiddenmist.o
Any questions just ask me lol

This song is by me and my (very popular :p) band. I think it's a pretty cool song so yeah man.

Tuning: CGCFAD

Intro/ Pre-Chorus:
D|-----------------------------------------------------------------------|
A|12-12-12-12-12-12-12-12-14-14-14-14-14-14-14-14-12-12-12-12-12-12-12-12|
F|12-12-12-12-12-12-12-12-14-14-14-14-14-14-14-14-12-12-12-12-12-12-12-12| X4
C|10-10-10-10-10-10-10-10-12-12-12-12-12-12-12-12-10-10-10-10-10-10-10-10|
G|0--0--0--0--0--0--0--0--0--0--0--0--0--0--0--0--0--0--0--0--0--0--0--0-|
C|-----------------------------------------------------------------------|

Bridge 1:                                             Bridge 2:
D|-----------------------------------------------|    -------------------------------|
A|-----------------------------------------------|    5-5-5-5-5-5-5-5/7-7-7-7-7-7-7-7| 
F|0-0-0-0-0-0-0-0-5-5-5-5-5-5-5-5-0-0-0-0-0-0-0-0| X2 5-5-5-5-5-5-5-5/7-7-7-7-7-7-7-7| X2/X4
C|3-3-3-3-3-3-3-3-3-3-3-3-3-3-3-3-3-3-3-3-3-3-3-3|    3-3-3-3-3-3-3-3/5-5-5-5-5-5-5-5| 
G|0-0-0-0-0-0-0-0-0-0-0-0-0-0-0-0-0-0-0-0-0-0-0--|    -------------------------------| 
C|-----------------------------------------------|    -------------------------------|

Pre-Chorus:
D|-----------------------------------------------------------------------|
A|12-12-12-12-12-12-12-12-14-14-14-14-14-14-14-14-12-12-12-12-12-12-12-12|
F|12-12-12-12-12-12-12-12-14-14-14-14-14-14-14-14-12-12-12-12-12-12-12-12| X2
C|10-10-10-10-10-10-10-10-12-12-12-12-12-12-12-12-10-10-10-10-10-10-10-10|
G|0--0--0--0--0--0--0--0--0--0--0--0--0--0--0--0--0--0--0--0--0--0--0--0-|
C|-----------------------------------------------------------------------|

Chorus:
D|-----------------------------------------------|
A|-----------------------------------------------|
F|--------------------19-19-19-19\8-8-8-8-8-8-8-8| X2
C|3-3-3-3-2-2-5-5-5-5-15-15-15-15\4-4-4-4-4-4-4-4|
G|3-3-3-3-2-2-5-5-5-5-15-15-15-15\2-2-2-2p0-0-0-0|
C|1-1-1-1-0-0-3-3-3-3-15-15-15-15\2-2-2-2/4-4-4-4|

Bridge 1:                                             
D|-----------------------------------------------|    
A|-----------------------------------------------|    
F|0-0-0-0-0-0-0-0-5-5-5-5-5-5-5-5-0-0-0-0-0-0-0-0| X1
C|3-3-3-3-3-3-3-3-3-3-3-3-3-3-3-3-3-3-3-3-3-3-3-3|     
G|0-0-0-0-0-0-0-0-0-0-0-0-0-0-0-0-0-0-0-0-0-0-0--|   
C|-----------------------------------------------|

Pre-Chorus:
D|-----------------------------------------------------------------------|
A|12-12-12-12-12-12-12-12-14-14-14-14-14-14-14-14-12-12-12-12-12-12-12-12|
F|12-12-12-12-12-12-12-12-14-14-14-14-14-14-14-14-12-12-12-12-12-12-12-12| X3
C|10-10-10-10-10-10-10-10-12-12-12-12-12-12-12-12-10-10-10-10-10-10-10-10|
G|0--0--0--0--0--0--0--0--0--0--0--0--0--0--0--0--0--0--0--0--0--0--0--0-|
C|-----------------------------------------------------------------------|

Breakdown:
D|-----------------------------------------------------------|
A|-----------------------------------------------------------|
F|------------------------------8-8-8-8-8-8-8-8-8-8-8-8-8-8-8|
G|1-0-5-4-4-4-4-8-8-8-8-6-6-6-6-8-8-8-8-8-8-8-8-0-0-0-0-0-0-0|
C|1-0-5-4-4-4-4-8-8-8-8-6-6-6-6-8-8-8-8-8-8-8-8-0-0-0-0-0-0-0|
G|1-0-5-4-4-4-4-8-8-8-8-6-6-6-6-8-8-8-8-8-8-8-8-0-0-0-0-0-0-0|

Use bridge 2 as the outro x4




************************************

| /   slide up
| \   slide down
| h   hammer-on
| p   pull-off
| ~   vibrato
| +   harmonic
| x   Mute note
| b   Bend
| pb  Pre-bend
| br  Bend release
| pbr Pre-bend release
| brb Bend release bend

************************************
Добавлено: 19.10.2015
Другие материалы по этой песне:
  • Аккорды и текст

Страница создана 19.10.2015
http://primanota.ru/misc-unsigned-bands/rehearsal-no-regret-chords.htm
Привет, Гость.
Предлагаем пройти революционный курс по гитаре.
Подарок от PrimaNota.Ru, забирай!