PrimaNota.ru - самый крупный в мире бесплатный архив песенных текстов, аккордов, табулатур и нот


Misc Unsigned Bands - Redwolf14 - Untitled - таба

Регистрация Запомнить меня
Войти через:  Facebook Google Twitter Vk Yandex Mail.ru

Misc Unsigned Bands - Redwolf14 - Untitled - таба

Печатать
Просмотров: 34
-------------------------------------------------------------------------------
                             Untitled Theme song in progress - Redwolf14
-------------------------------------------------------------------------------
Tabbed by: jamiesimpson1

This is a tab that is currently a work in progress. If you have any name 
suggestions would be greatfull. Hope you enjoy it!

Tuning: D A D G B E

e|----------------|----------------|------------------------|----------------|
B|----------------|----------------|------------------------|----------------|
G|----------------|----------------|------------------------|----------------|
D|-------0-------0|-------0-------0|-------0-------0-------0|-------0-------0|
A|---0-------0----|---0-------0----|---0-------0-------0----|---0-------0----|
E|-0---0---0---0--|-0---0---0---0--|-3---3---3---3-/-5---5--|-5---5-/-3---3--|

e|----------------|  x4
B|----------------|
G|----------------|.
D|-------0-------0|.
A|---0-------0----|
E|-3p--0---0---0--|

e|--------------|-------------------|-------------------|-----------------------------|
B|--------------|-------------------|-------------------|-----------------------------|
G|--------------|-------------------|-------------------|-----------------------------|
D|---0---0---0--|-3---3-/-5---5-/-7-|--7-\-5---5-/--12--|---12--\--10--/--13--\--12---|
A|--------------|-------------------|-------------------|-----------------------------|
E|-0---0---0---0|---0---0---0---0---|0---0---0---0------|0------0------0------0------0|

e|-------------------------------------|
B|-------------------------------------|
G|-------------------------------------|
D|---12---12-\-7-\-5-\-3---3p---0---0--|
A|-------------------------------------|
E|-0----0----0---0---0---0----0---0---0|

e|----------------|----------------|------------------------|----------------|
B|----------------|----------------|------------------------|----------------|
G|----------------|----------------|------------------------|----------------|
D|-------0-------0|-------0-------0|-------0-------0-------0|-------0-------0|
A|---0-------0----|---0-------0----|---0-------0-------0----|---0-------0----|
E|-0---0---0---0--|-0---0---0---0--|-3---3---3---3-/-5---5--|-5---5-/-3---3--|

e|----------------|  x4
B|----------------|
G|----------------|.
D|-------0-------0|.
A|---0-------0----|
E|-3p--0---0---0--|

Finish on and let last ring:
e|--------------------------|
B|--------------------------|
G|--------------------------|
D|-------0-------0------0---|
A|---0-------0-------0------|
E|-0---0---0---0---0----0---|


************************************

| /   slide up
| \   slide down
| h   hammer-on
| p   pull-off
| ~   vibrato
| +   harmonic
| x   Mute note
| b   Bend
| pb  Pre-bend
| br  Bend release
| pbr Pre-bend release
| brb Bend release bend

************************************
Добавлено: 19.10.2015
Другие материалы по этой песне:
  • Аккорды и текст

Страница создана 19.10.2015
http://primanota.ru/misc-unsigned-bands/redwolf14-untitled-chords.htm
Привет, Гость.
Предлагаем пройти революционный курс по гитаре.
Подарок от PrimaNota.Ru, забирай!