PrimaNota.ru - самый крупный в мире бесплатный архив песенных текстов, аккордов, табулатур и нот


Misc Unsigned Bands - Riccardo Ferrari - Easy Metal Riff - таба

Регистрация Запомнить меня
Войти через:  Facebook Google Twitter Vk Yandex Mail.ru

Misc Unsigned Bands - Riccardo Ferrari - Easy Metal Riff - таба

Печатать
Просмотров: 73
-------------------------------------------------------------------------------
                             Easy Metal Riff - Riccardo Ferrari
-------------------------------------------------------------------------------
Tabbed by: Riccardo Ferrari
E-mail: rikiferra25@gmail.com

Tuning: Standard
                  i wrote this tab for beginners!!!

                            i hope you like it
e|---------------------------------------------------------------------------|
B|---------------------------------------------------------------------------|
G|---------------------------------------------------------------------------|
D|------3------5-----3------6-------------3------4------3------10------------|
A|------3------5-----3------6-------------3------4------3------10------------|
E|--0-0-1--0-0-3-0-0-1--0-0-4---------0-0-1--0-0-2--0-0-1--0-0-8-------------|
  pm___   pm__  pm__   pm__|let rings|pm_   pm__   pm__   pm__|let rings|
e|---------------------------------------------------------------------------|
B|---------------------------------------------------------------------------|
G|---------------------------------------------------------------------------|
D|-----3------8---------6-------------3--------------------------------------|
A|-----3------8---------6-------------3--------------------------------------|
E|-0-0-1--0-0-6---------4-----------0-1--------------------------------------|
  pm__   pm__|let rings||let rings|pm|let ringggggg     |



************************************

| /   slide up
| \   slide down
| h   hammer-on
| p   pull-off
| ~   vibrato
| +   harmonic
| x   Mute note
| b   Bend
| pb  Pre-bend
| br  Bend release
| pbr Pre-bend release
| brb Bend release bend

************************************
Добавлено: 19.10.2015
Другие материалы по этой песне:
  • Аккорды и текст

Страница создана 19.10.2015
http://primanota.ru/misc-unsigned-bands/riccardo-ferrari-easy-metal-riff-chords.htm
Привет, Гость.
Предлагаем пройти революционный курс по гитаре.
Подарок от PrimaNota.Ru, забирай!