PrimaNota.ru - самый крупный в мире бесплатный архив песенных текстов, аккордов, табулатур и нот


Misc Unsigned Bands - Petit Biscuit - Sunset Lover - таба

Регистрация Запомнить меня
Войти через:  Facebook Google Twitter Vk Yandex Mail.ru

Misc Unsigned Bands - Petit Biscuit - Sunset Lover - таба

Печатать
Просмотров: 603
Petit Biscuit (Sunset Lover)

Standard Tuning

Listen to the beat for correct timing.


e:-----------------------------------------------------------------------|
B:----4----4----4----4----4-----6---6----7----7----7---------------------|
G:-----------------------------------------------------------------------|
D:-----------------------------------------------------------------------|
A:----2----2----2----2----2-----4---4----6----6----6---------------------|
E:-----------------------------------------------------------------------|



e:-----------------------------------------------------------------------|
B:-----------------------------------------------------------------------|
G:----3----3----3----3----3----4----4-----6----6-------------------------|
D:-----------------------------------------------------------------------|
A:-----------------------------------------------------------------------|
E:----2----2----2----2----2----4----4-----6----6-------------------------|


e:-----------------------------------------------------------------------|
B:----4----4----4----4----4-----6---6----7----7----7---------------------|
G:-----------------------------------------------------------------------|
D:-----------------------------------------------------------------------|
A:----2----2----2----2----2-----4---4----6----6----6---------------------|
E:-----------------------------------------------------------------------|



e:-----------------------------------------------------------------------|
B:-----------------------------------------------------------------------|
G:----3----3----3----3----3----4----4-----6----6-------------------------|
D:-----------------------------------------------------------------------|
A:-----------------------------------------------------------------------|
E:----2----2----2----2----2----4----4-----6----6-------------------------|
Добавлено: 29.03.2016
Другие материалы по этой песне:
  • Аккорды и текст

Страница создана 29.03.2016
http://primanota.ru/misc-unsigned-bands/petit-biscuit-sunset-lover-chords.htm
Привет, Гость.
Предлагаем пройти революционный курс по гитаре.
Подарок от PrimaNota.Ru, забирай!