PrimaNota.ru - самый крупный в мире бесплатный архив песенных текстов, аккордов, табулатур и нот


Misc Unsigned Bands - Pierre De Geyter - L Internationale - таба

Регистрация Запомнить меня
Войти через:  Facebook Google Twitter Vk Yandex Mail.ru

Misc Unsigned Bands - Pierre De Geyter - L Internationale - таба

Печатать
Просмотров: 83
                               L'Internationale                                 

                               Pierre De Geyter 

Track 1
     E     Q.     E  E  E  E  E     H        Q.     E   
E||-----|------------------------|---------------------|
B||-----|------------------------|---------------------|
G||-----|--0---------2--0--------|---------------------|
D||--0--|---------4--------0-----|--2---------------2--|
A||-----|---------------------2--|-----------3---------|
E||-----|------------------------|---------------------|


  Q.     E  E  E  E  E     H        Q    Q       Q.     E  E  E  E  E   
------------------------|---------------------|------------------------|
------------------------|---------------------|------------------------|
--2------0--------------|---------------------|--0---------2--0--------|
------------4--2--0-----|----------------0----|---------4--------0-----|
---------------------3--|--2------------------|---------------------2--|
------------------------|---------------------|------------------------|


  H        Q    E  E     Q    Q    Q    Q       H        Q    E  E   
----------------------|----------------------|----------------------|
----------------------|------------1---------|----------------0-----|
----------------2--0--|-------2--------------|--0----------------2--|
--2-------------------|--4--------------4----|----------------------|
-----------3----------|----------------------|----------------------|
----------------------|----------------------|----------------------|


  H        E  E  E  E     H        Q    E  E     Q.     E  Q.     E   
-----------------------|----------------------|----------------------|
-----------------0-----|----------------------|----------------------|
-----------------------|----------------------|------------2------0--|
--4--------2--4-----2--|--4--------0-------0--|--2-------------------|
-----------------------|----------------4-----|---------0------------|
-----------------------|----------------------|----------------------|


  H        Q    E  E     Q.     E  E  E  E  E     H        E  E  E  E   
----------------------|------------------------|-----------------------|
----------------------|------------------------|--0--------------------|
-------------------2--|--2---------------------|-----------0--0--------|
--4-------------------|---------4--0--0-----0--|-----------------4--2--|
----------------------|------------------4-----|-----------------------|
----------------------|------------------------|-----------------------|


  Q    Q    Q    Q       Q    Q    Q    E  E     H        Q.     E   
----------------------|-----------------------|---------------------|
----------------------|-----------------0-----|---------------------|
-------2----0---------|--------------------2--|--0------------------|
--4--------------2----|--0--------------------|-----------0---------|
----------------------|-----------------------|------------------2--|
----------------------|-----------------------|---------------------|


  H        Q    E  E     H        Q.     E     H        Q    Q     
----------------------|---------------------|---------------------|
----------------------|---------------------|--0-------------0----|
----------------2--0--|---------------------|---------------------|
--2-------------------|--4--------2------0--|---------------------|
-----------3----------|---------------------|---------------------|
----------------------|---------------------|---------------------|


  H        Q.     E     H        Q.     E     Q.     E  Q    Q     
---------------------|---------------------|----------------------|
--0------------------|---------------------|----------------------|
-----------2---------|--0------------------|-----------------2----|
------------------0--|-----------4------4--|--2------1--2---------|
---------------------|---------------------|----------------------|
---------------------|---------------------|----------------------|


  H.           E  E     H        Q.     E     H        Q    E  E   
---------------------|---------------------|----------------------|
---------------0-----|---------------------|----------------------|
--2---------------2--|--0------------------|----------------2--0--|
---------------------|-----------0---------|--2-------------------|
---------------------|------------------2--|-----------3----------|
---------------------|---------------------|----------------------|


  H.           E  E     H        Q    Q       H        Q    Q     
---------------------|---------------------|---------------------|
---------------------|--0-------------0----|--3--------1----0----|
---------------------|---------------------|---------------------|
--4------------2--0--|---------------------|---------------------|
---------------------|---------------------|---------------------|
---------------------|---------------------|---------------------|


  E   E  E  E  Q    E  E     Q.     E  Q.     E     H        Q    E    
--------------------------|----------------------|-------------------||
------------0--1-------1--|--0-------------------|-------------------||
--2p--1--2----------------|---------0--2---------|--0----------------||
--------------------------|-------------------4--|-------------------||
--------------------------|----------------------|-------------------||
--------------------------|----------------------|-------------------||




Duration Legend
---------------
W - whole
H - half
Q - quarter
E - 8th
S - 16th
T - 32nd
X - 64th
. - note dotted
|-n-|  - n-tuplets


Tablature Legend
----------------
L - tied note
x - dead note
g - grace note
(n) - ghost note
> - accentuded note
NH - natural harmonic
AH - artificial harmonic
TH - tapped harmonic
SH - semi harmonic
PH - pitch harmonic
h - hammer on
p - pull off
b - bend
br - bendRelease
pb - preBend
pbr - preBendRelease
brb - bendReleaseBend
\n/ - tremolo bar dip
\n - tremolo bar dive
-/n - tremolo bar Release up
/n\ - tremolo bar inverted dip
/n - tremolo bar return
-\n - tremolo bar Release down
S - shift slide
s - legato slide
/ -  slide into from below or out of upwards
\ -  slide into from above or out of downwards
~ - vibrato
W - wide vibrato
tr - trill
TP - tremolo picking
T - tapping
S - slap
P - pop
< - fade in
^ - brush up
v - brush down
Добавлено: 23.04.2016
Другие материалы по этой песне:
  • Аккорды и текст

Страница создана 23.04.2016
http://primanota.ru/misc-unsigned-bands/pierre-de-geyter-l-internationale-chords.htm
Привет, Гость.
Предлагаем пройти революционный курс по гитаре.
Подарок от PrimaNota.Ru, забирай!